Home » M » M Chedid »

M Chedid - Gloria Tabs

Artists:  A B C D E F G H I J K L M N O P Q R S T U V W X Y Z # 

Gloria Tabs

(ver. 1) Click to play this song!
M Chedid
Gtr I (E A D G B E) - 'Billy Harrison - Electric Guitar'


 Intro
  Q=128
  E       D   A     E       D   A     E       D   A     E       D   A
 4/4
  Gtr I
  E E E E E E E E   E E E E E E E E   E E E E E E E E   E E E E E E E E
|---0-0-0-2-0-0-0-|---0-0-0-2-0-0-0-|---0-0-0-2-0-0-0-|---0-0-0-2-0-0-0--||
|-0-0-0-0-3-0-2-0-|-0-0-0-0-3-0-2-0-|-0-0-0-0-3-0-2-0-|-0-0-0-0-3-0-2-0--||
|-1-1-1-0-2-0-2-0-|-1-1-1-0-2-0-2-0-|-1-1-1-0-2-0-2-0-|-1-1-1-0-2-0-2-0--||
|-2-2-2---0---2---|-2-2-2---0---2---|-2-2-2---0---2---|-2-2-2---0---2----||
|-2-2---------0---|-2-2---------0---|-2-2---------0---|-2-2---------0----||
|-0-0-------------|-0-0-------------|-0-0-------------|-0-0--------------||


   1st & 2nd Verses
    E       D   A     E       D   A     E       D   A     E       D   A
    E E E E E E E E   E E E E E E E E   E E E E E E E E   E E E E E E E E  5x
||----0-0-0-2-0-0-0-|---0-0-0-2-0-0-0-|---0-0-0-2-0-0-0-|---0-0-0-2-0-0-0--||
||o-0-0-0-0-3-0-2-0-|-0-0-0-0-3-0-2-0-|-0-0-0-0-3-0-2-0-|-0-0-0-0-3-0-2-0-o||
||--1-1-1-0-2-0-2-0-|-1-1-1-0-2-0-2-0-|-1-1-1-0-2-0-2-0-|-1-1-1-0-2-0-2-0--||
||--2-2-2---0---2---|-2-2-2---0---2---|-2-2-2---0---2---|-2-2-2---0---2----||
||o-2-2---------0---|-2-2---------0---|-2-2---------0---|-2-2---------0---o||
||--0-0-------------|-0-0-------------|-0-0-------------|-0-0--------------||


                                      Chorus
  E       D   A     E       D   A      E       D   A     E       D   A
  E E E E E E E E   E E E E E E E E    E E E E E E E E   E E E E E E E E
|---0-0-0-2-0-0-0-|---0-0-0-2-0-0-0-||---0-0-0-2-0-0-0-|---0-0-0-2-0-0-0--|
|-0-0-0-0-3-0-2-0-|-0-0-0-0-3-0-2-0-||-0-0-0-0-3-0-2-0-|-0-0-0-0-3-0-2-0--|
|-1-1-1-0-2-0-2-0-|-1-1-1-0-2-0-2-0-||-1-1-1-0-2-0-2-0-|-1-1-1-0-2-0-2-0--|
|-2-2-2---0---2---|-2-2-2---0---2---||-2-2-2---0---2---|-2-2-2---0---2----|
|-2-2---------0---|-2-2---------0---||-2-2---------0---|-2-2---------0----|
|-0-0-------------|-0-0-------------||-0-0-------------|-0-0--------------|


    E       D   A     E       D   A     E       D   A     E       D   A
    E E E E E E E E   E E E E E E E E   E E E E E E E E   E E E E E E E E
||----0-0-0-2-0-0-0-|---0-0-0-2-0-0-0-|---0-0-0-2-0-0-0-|---0-0-0-2-0-0-0--||
||o-0-0-0-0-3-0-2-0-|-0-0-0-0-3-0-2-0-|-0-0-0-0-3-0-2-0-|-0-0-0-0-3-0-2-0-o||
||--1-1-1-0-2-0-2-0-|-1-1-1-0-2-0-2-0-|-1-1-1-0-2-0-2-0-|-1-1-1-0-2-0-2-0--||
||--2-2-2---0---2---|-2-2-2---0---2---|-2-2-2---0---2---|-2-2-2---0---2----||
||o-2-2---------0---|-2-2---------0---|-2-2---------0---|-2-2---------0---o||
||--0-0-------------|-0-0-------------|-0-0-------------|-0-0--------------||


 Guitar Solo
  E        D  A  D    E        D  A  D
   |--3--|  |--3--|    |--3--|  |--3--|
   Q  Q  Q  Q  Q  Q    Q  Q  Q  Q  Q  Q
|-12-12-12-10--9-10-|-12-12-12-10--9-10-|
|-12-12-12-10-10-10-|-12-12-12-10-10-10-|
|-13-13-13-11--9-11-|-13-13-13-11--9-11-|
|-------------------|-------------------|
|-------------------|-------------------|
|-------------------|-------------------|


  E        D  A  D    E        D  A  D
   |--3--|  |--3--|    |--3--|  |--3--|
   Q  Q  Q  Q  Q  Q    Q  Q  Q  Q  Q  Q
|-12-12-12-10--9-10-|-12-12-12-10--9-10-|
|-12-12-12-10-10-10-|-12-12-12-10-10-10-|
|-13-13-13-11--9-11-|-13-13-13-11--9-11-|
|-------------------|-------------------|
|-------------------|-------------------|
|-------------------|-------------------|


  E        D  A  D    E        D  A  D    E    D            E    D
   |--3--|  |--3--|    |--3--|  |--3--|
   Q  Q  Q  Q  Q  Q    Q  Q  Q  Q  Q  Q   Q.   E +Q   E E   Q.   E +Q   E E
|-12-12-12-10--9-10-|-12-12-12-10--9-10-|-4----2-(2)------|-4----2-(2)-------|
|-12-12-12-10-10-10-|-12-12-12-10-10-10-|-5----3-(3)--2-0-|-5----3-(3)--2-0--|
|-13-13-13-11--9-11-|-13-13-13-11--9-11-|-4----2-(2)------|-4----2-(2)-------|
|-------------------|-------------------|-----------------|------------------|
|-------------------|-------------------|-----------------|------------------|
|-------------------|-------------------|-----------------|------------------|


  E    D            E    D            E
  Q.   E +Q   E E   Q.   E +Q   E E   W          +W
|-4----2-(2)------|-4----2-(2)------|-0--------|-(0)----||
|-5----3-(3)--2-0-|-5----3-(3)--2-0-|-0--------|-(0)----||
|-4----2-(2)------|-4----2-(2)------|-1--------|-(1)----||
|-----------------|-----------------|-2--------|-(2)----||
|-----------------|-----------------|-2--------|-(2)----||
|-----------------|-----------------|-0--------|-(0)----||


   2nd Verse
    E       D   A     E       D   A     E       D   A     E       D   A
    E E E E E E E E   E E E E E E E E   E E E E E E E E   E E E E E E E E  4x
||----0-0-0-2-0-0-0-|---0-0-0-2-0-0-0-|---0-0-0-2-0-0-0-|---0-0-0-2-0-0-0--||
||o-0-0-0-0-3-0-2-0-|-0-0-0-0-3-0-2-0-|-0-0-0-0-3-0-2-0-|-0-0-0-0-3-0-2-0-o||
||--1-1-1-0-2-0-2-0-|-1-1-1-0-2-0-2-0-|-1-1-1-0-2-0-2-0-|-1-1-1-0-2-0-2-0--||
||--2-2-2---0---2---|-2-2-2---0---2---|-2-2-2---0---2---|-2-2-2---0---2----||
||o-2-2---------0---|-2-2---------0---|-2-2---------0---|-2-2---------0---o||
||--0-0-------------|-0-0-------------|-0-0-------------|-0-0--------------||


                                      Chorus
  E       D   A     E       D   A      E       D   A     E       D   A
  E E E E E E E E   E E E E E E E E    E E E E E E E E   E E E E E E E E
|---0-0-0-2-0-0-0-|---0-0-0-2-0-0-0-||---0-0-0-2-0-0-0-|---0-0-0-2-0-0-0--|
|-0-0-0-0-3-0-2-0-|-0-0-0-0-3-0-2-0-||-0-0-0-0-3-0-2-0-|-0-0-0-0-3-0-2-0--|
|-1-1-1-0-2-0-2-0-|-1-1-1-0-2-0-2-0-||-1-1-1-0-2-0-2-0-|-1-1-1-0-2-0-2-0--|
|-2-2-2---0---2---|-2-2-2---0---2---||-2-2-2---0---2---|-2-2-2---0---2----|
|-2-2---------0---|-2-2---------0---||-2-2---------0---|-2-2---------0----|
|-0-0-------------|-0-0-------------||-0-0-------------|-0-0--------------|


    E       D   A     E       D   A     E       D   A     E       D
    E E E E E E E E   E E E E E E E E   E E E E E E E E   E E E E E E E E  3x
||----0-0-0-2-0-0-0-|---0-0-0-2-0-0-0-|---0-0-0-2-0-0-0-|---0-0-0-2-0-0-0--||
||o-0-0-0-0-3-0-2-0-|-0-0-0-0-3-0-2-0-|-0-0-0-0-3-0-2-0-|-0-0-0-0-3-0-2-0-o||
||--1-1-1-0-2-0-2-0-|-1-1-1-0-2-0-2-0-|-1-1-1-0-2-0-2-0-|-1-1-1-0-2-0-2-0--||
||--2-2-2---0---2---|-2-2-2---0---2---|-2-2-2---0---2---|-2-2-2---0---2----||
||o-2-2---------0---|-2-2---------0---|-2-2---------0---|-2-2---------0---o||
||--0-0-------------|-0-0-------------|-0-0-------------|-0-0--------------||


 Outro
  E        D  A  D    E        D  A  D
   |--3--|  |--3--|    |--3--|  |--3--|
   Q  Q  Q  Q  Q  Q    Q  Q  Q  Q  Q  Q
|-12-12-12-10--9-10-|-12-12-12-10--9-10-|
|-12-12-12-10-10-10-|-12-12-12-10-10-10-|
|-13-13-13-11--9-11-|-13-13-13-11--9-11-|
|-------------------|-------------------|
|-------------------|-------------------|
|-------------------|-------------------|


  E        A  D  A    E
   |--3--|  |--3--|
   Q  Q  Q  Q  Q  Q   W          +W
|-12-12-12-10--9-10-|-0--------|-(0)----*|
|-12-12-12-10-10-10-|-0--------|-(0)----*|
|-13-13-13-11--9-11-|-1--------|-(1)----*|
|-------------------|-2--------|-(2)----*|
|-------------------|-2--------|-(2)----*|
|-------------------|-0--------|-(0)----*|            
Submit corrections

↑ Back to top | Tablatures and chords for acoustic guitar and electric guitar, ukulele, drums are parodies/interpretations of the original songs. You may use it for private study, scholarship, research or language learning purposes only