Home » M » M Chedid »

M Chedid - Baby Please Dont Go Tabs

Artists:  A B C D E F G H I J K L M N O P Q R S T U V W X Y Z # 

Baby Please Dont Go Tabs

(ver. 1) Click to play this song!
M Chedid
Gtr I (E A D G B E) - 'Billy Harrison - Electric Guitar / Capo 1st fret'


 Intro
  H=108(8=s8)
  N.C.
 4/4
  Gtr I (El. Gtr. w/ light dist. - Capo 1st fret)
  E E E E E E E E   a W          +W           +W
|---------3-0-----|---0--------|-(0)--------|-(0)----|
|---0-3-0-----3-0-|-3s5--------|-(5)--------|-(5)----|
|-----------------|------------|------------|--------|
|-----------------|------------|------------|--------|
|-----------------|------------|------------|--------|
|-----------------|------------|------------|--------|


                    ~~~~~~~~~~~~~~~~~~~~~~~~~~~~
  +E  E q  E E q    W          +W           +W
|-(0)------3-0----|----------|------------|--------|
|-(5)-0-3------3--|----------|------------|--------|
|-----------------|-3--------|-(3)--------|-(3)----|
|-----------------|----------|------------|--------|
|-----------------|----------|------------|--------|
|-----------------|----------|------------|--------|


   ~~~
  +H     +E  E E E   E E E E Q  E E   E E E E E E E E   q  q  Q  q
|------------------|-3-0-----0------|-----0-----------|--------------|
|------------0-3---|-----3------3-0-|-----0-----------|--------------|
|-(3)----(3)-------|----------------|-2s4---4s2p0---0-|-2------------|
|------------------|----------------|-------------2---|----2--2--2---|
|------------------|----------------|-----------------|--------------|
|------------------|----------------|-----------------|--------------|


 2/4         4/4
  q  Q        W          +H     E E Q      H    Q  Q
|-----------|----------|---------------||------------------|
|-----------|----------|---------------||o-----------------|
|-----------|----------|---------------||------------------|
|-----------|----------|---------------||--0---------------|
|-2---------|----------|----------0h2--||o------0----------|
|----3b3.5--|-0--------|-(0)----0------||----------3b3.5---|


  H    E E Q   3x H    Q  Q        H    E E Q    H    Q  Q
|--------------||----------------|-------------|-----------------||
|-------------o||----------------|-------------|-----------------||
|--------------||----------------|-------------|-----------------||
|--------------||-0--------------|-------------|-0---------------||
|--------0h2--o||------0---------|--------0h2--|------0----------||
|-0----0-------||---------3b3.5--|-0----0------|---------3b3.5---||


   1st - 3rd Verses
    E
    Q  Q  +E  E Q    q  Q  H      E E E E E E q    q  E E H
||-----------------|------------|-------0--------|-------------|
||o----2--(2)------|-0----------|----------------|-------------|
||-----2--(2)-2----|-1----------|---2s4---2p0----|-------------|
||------------2----|-2----------|-------------2--|-2--x-2------|
||o----------------|------------|----------------|-------------|
||--0--------------|------------|----------------|-------------|


  W          +W           a W          +H.       Q
|----------|------------|------------|---------------||
|----------|------------|---0--------|-(0)-----------||
|----------|------------|-2s4--------|-(4)-----------||
|----------|------------|------------|---------------||
|-2--------|-(2)--------|------------|---------------||
|-0--------|-(0)--------|------------|----------12\--||


 Interlude
                                                      1.,2.
  E
   Q  Q   q  Q     Q   E E +Q    Q      Q  Q   q  Q     Q   E E +Q   Q    3x
|-----7\--0-----|-12\----0-(0)-------|-----7\--0-----|-12\----0-(0)-------||
|-----8\--0-----|-12\----0-(0)-------|-----8\--0-----|-12\----0-(0)------o||
|---------------|--------------------|---------------|--------------------||
|---------------|--------------------|---------------|--------------------||
|---------------|--------------------|---------------|-------------------o||
|-\0------------|---------------12\--|-\0------------|--------------------||


                           Guitar Solo
  3.
                            N.C.
                                                          ~
   Q   E a E +E  E a E E    W          +E  E q  E E E E   W
|-12\------0-(0)-0---0-0-||-0--------|-(0)------3-0-----|------|
|-12\----3s5-(5)---3s5---||-5--------|-(5)-0-3------3-0-|------|
|------------------------||----------|------------------|-3----|
|------------------------||----------|------------------|------|
|------------------------||----------|------------------|------|
|------------------------||----------|------------------|------|


   ~~~
  +H     +E  E E E   E E E E Q  E E   E E E E E E E E   E E q  Q  E E
|------------------|-3-0-----0------|-----0-----------|----------------|
|--------------3-0-|-----3-0----3-0-|-----0-----------|----------------|
|-(3)----(3)-0-----|----------------|-2s4---4s2p0---0-|-2p0------------|
|------------------|----------------|-------------2---|-----2--2--2-0--|
|------------------|----------------|-----------------|----------------|
|------------------|----------------|-----------------|----------------|


 2/4         4/4
                                           PM------|
  q  Q        W          +H     +E  Q.     H    Q  Q
|-----------|----------|-----------------|-----------------|
|-----------|----------|-----------------|-----------------|
|-----------|----------|-----------------|-----------------|
|-----------|----------|-----------------|-0---------------|
|-2---------|----------|------------0----|------0----------|
|----3b3.5--|-0--------|-(0)----(0)------|---------3b3.5---|


  PM----------------------------------------|
  H    +E  Q.     H    Q  Q        H    +E  Q.
|---------------|----------------|---------------||
|---------------|----------------|---------------||
|---------------|----------------|---------------||
|---------------|-0--------------|---------------||
|----------0----|------0---------|----------0----||
|-0----(0)------|---------3b3.5--|-0----(0)------||


   4th & 5th Verses
    N.C.
    Q  Q  H      W          W          +H     +E  E q
||-------------|----------|----------|-----------------|
||o------------|----------|----------|------------0h3--|
||-------------|----------|-3--------|-(3)----(3)------|
||--0----------|----------|----------|-----------------|
||o------------|----------|----------|-----------------|
||-------------|----------|----------|-----------------|


                                                    2/4
  Q  E E Q  Q    E E E E E E E E   E E E E Q   Q     Q  Q
|-0------0-----|-0---------------|------------12\--|-----------|
|----3p0-------|-----------------|-----------------|-----------|
|-----------2--|---4s2p0---0-2p0-|-2-0-2-0---------|-----------|
|--------------|---------2-------|---------2-------|-----------|
|--------------|-----------------|-----------------|-2---------|
|--------------|-----------------|-----------------|----3b3.5--|


                1.
 4/4
  Q   Q   H      E E    +H.
|----12\-------|--------------------|
|----11\-------|---4tr5-(4tr5)------|
|--------------|--------------------|
|--------------|--------------------|
|--------------|--------------------|
|-0------------|--------------------|


                              2.
  +W              W            H    E E Q
|---------------|-----------||-------------||
|-(4tr5)--------|----------o||-------------||
|---------------|-----------||-------------||
|---------------|-----------||-------------||
|---------------|----------o||--------0h2--||
|---------------|-----------||-------------||


 Interlude
  N.C.
  PM-------------------------------------------------------|
  H    Q  Q        H    E E Q    H    Q  Q        H    E E Q
|----------------|-------------|----------------|--------------|
|----------------|-------------|----------------|--------------|
|----------------|-------------|----------------|--------------|
|-0--------------|-------------|-0--------------|--------------|
|------0---------|--------0h2--|------0---------|--------0h2---|
|---------3b3.5--|-0----0------|---------3b3.5--|-0----0-------|


    PM-------------------------------------------------------|
    H    Q  Q        H    E E Q    H    Q  Q        H    E E Q
||-----------------|-------------|----------------|--------------||
||o----------------|-------------|----------------|-------------o||
||-----------------|-------------|----------------|--------------||
||--0--------------|-------------|-0--------------|--------------||
||o------0---------|--------0h2--|------0---------|--------0h2--o||
||----------3b3.5--|-0----0------|---------3b3.5--|-0----0-------||


  PM-------------------------------------|
  H    Q  Q        H    E E Q    H    Q  Q
|----------------|-------------|----------------||
|----------------|-------------|----------------||
|----------------|-------------|----------------||
|-0--------------|-------------|-0--------------||
|------0---------|--------0h2--|------0---------||
|---------3b3.5--|-0----0------|---------3b3.5--||


   6th & 7th Verses
    E
    Q  Q  +E  Q.        q  Q  H      E E E E E E q    q  E E H
||--------------------|------------|-------0--------|-------------|
||o----2--(2)---------|------------|----------------|-------------|
||-----2--(2)---------|-1----------|---2s4---2p0----|-------------|
||------------2b2.5---|-2----------|-------------2--|-2--0-2------|
||o-------------------|-2----------|----------------|------2------|
||--------------------|-0----------|----------------|-------------|


  W          +W           E Q.   +H       +H.       Q
|----------|------------|---------------|----------------|
|----------|------------|-2s3----(3)----|-(3)------------|
|----------|------------|-3s4----(4)----|-(4)------------|
|----------|------------|---------------|----------------|
|-2--------|-(2)--------|---------------|----------------|
|-0--------|-(0)--------|---------------|----------12\---|


                                                      1.
   Q  Q   q  Q     Q   E E +Q    Q      Q  Q   q  Q     Q   E E +E  E E E
|-----7\--0-----|-12\----0-(0)-------|-----7\--0-----|-12\----0-(0)---------||
|-----8\--0-----|-12\----0-(0)-------|-----8\--0-----|-12\----0-(0)--------o||
|---------------|--------------------|---------------|----------------------||
|---------------|--------------------|---------------|----------------0-----||
|---------------|--------------------|---------------|--------------2---2--o||
|-\0------------|---------------12\--|-\0------------|----------------------||


  2.
   Q   E a E +E  E a E E   W          +E  E q  E E E E   W
|-12\------0-(0)-0---0-0-|-0--------|-(0)------3-0-----|------|
|-12\----3s5-(5)---3s5---|-5--------|-(5)-0-3------3-0-|------|
|------------------------|----------|------------------|-3----|
|------------------------|----------|------------------|------|
|------------------------|----------|------------------|------|
|------------------------|----------|------------------|------|


  +H     +E  E q    E E Q  Q  E E   E E E E E E E E
|-----------------|-3-0----0------|-----0-----------|
|------------0-3--|-----3-----3-0-|-----------------|
|-(3)----(3)------|---------------|-2s4---4s2p0---0-|
|-----------------|---------------|-------------2---|
|-----------------|---------------|-----------------|
|-----------------|---------------|-----------------|


                 2/4          4/4
  E E q  Q  E E   E E Q        q  Q  H
|---------------|------------|------------*|
|---------------|------------|------------*|
|-2p0-----------|------------|------------*|
|-----2--2--2-0-|------------|------------*|
|---------------|-2----------|-2----------*|
|---------------|---0-3b3.5--|-0----------*|            
Submit corrections

↑ Back to top | Tablatures and chords for acoustic guitar and electric guitar, ukulele, drums are parodies/interpretations of the original songs. You may use it for private study, scholarship, research or language learning purposes only