Home » M » Mc Hammer »

Mc Hammer - Can't Touch This Bass

Artists:  A B C D E F G H I J K L M N O P Q R S T U V W X Y Z # 

Can't Touch This Bass

(ver. 1) Click to play this song!
Mc Hammer
G|--------------------
D|--------------------
A|-5-3-2-0--------2---
E|------------0-3---5-

G|-------------------- 
D|--------------------
A|-5-3-2-0---2----2---
E|-------------3----5-

G|--------------------
D|--------------------
A|-5-3-2-0--------2---
E|------------0-3---5-

G|-------------------- 
D|--------------------
A|-5-3-2-0---2----2---
E|-------------3----5-

Thats pretty much it. You can work out the timing easily. Just keep repeating them.
            
Submit corrections

↑ Back to top | Tablatures and chords for acoustic guitar and electric guitar, ukulele, drums are parodies/interpretations of the original songs. You may use it for private study, scholarship, research or language learning purposes only