» » »

Mccoy Tyner - Tabs

Artists:  A B C D E F G H I J K L M N O P Q R S T U V W X Y Z # 

Tabs

(ver. 1) Click to play this song!
Mccoy Tyner
 Rating:
4.3/5 (22 votes)


  lessons Tabs too difficult? Try these video lessons and learn fast
 
                [Chorus]

  Ebmaj7             Db9                Ebmaj7             Db9
e|------------------|------------------|------------------|------------------|
B|------------------|------------------|------6-----------|------------------|
G|------------------|------------------|5-----------7-----|6-----------------|
D|5-----8-----------|---------5--6--8--|------------------|------------6-----|
A|---------------6--|8-----------------|------------------|------8-----------|
E|------------------|------------------|------------------|------------------|
  1  +  2  +  3  +  |1  +  2  +  3  +  |1  +  2  +  3  +  |1  +  2  +  3  +  |

  Ebmaj7             Db9                Am7                D7
e|------------------|------------------|------------------|------------------|
B|------------------|------------------|------------------|------------------|
G|------------------|------------------|5-----4-----5-----|7--------------5--|
D|5-----8-----------|---------5--6--8--|------------------|------------------|
A|---------------6--|8-----------------|------------------|------------------|
E|------------------|------------------|------------------|------------------|
  1  +  2  +  3  +  |1  +  2  +  3  +  |1  +  2  +  3  +  |1  +  2  +  3  +  |


  G/D                Dm7/G              G/D                Dm7/G
e|------------------|------------------|------------------|------------------|
B|------------------|------------------|------8-----------|------------------|
G|4-----7-----------|------4-----5-----|7-----------4-----|------------------|
D|---------------5--|7-----------------|------------------|7-----------------|
A|------------------|------------------|------------------|------------------|
E|------------------|------------------|------------------|------------------|
  1  +  2  +  3  +  |1  +  2  +  3  +  |1  +  2  +  3  +  |1  +  2  +  3  +  |


  Emaj7              D9                 Emaj7              Fm7         Bb7(b9)
e|------------------|------------------|------------------|------------------|
B|------------------|------------------|------------------|------------------|
G|------4-----------|------------------|4-----6-----------|3-----------------|
D|6-----------------|4-----6-----7-----|------------6-----|------------5-----|
A|---------------7--|------------------|------------------|------------------|
E|------------------|------------------|------------------|------------------|
  1  +  2  +  3  +  |1  +  2  +  3  +  |1  +  2  +  3  +  |1  +  2  +  3  +  |



[Outro]

 ||---------Vamp------------------------||---------End------|
 ||Ebmaj7             Db9               ||Ebmaj7            |
e||------------------|------------------||------------------|
B||------------------|------------------||------------------|
G||------------------|------------------||------------------|
D||------------------|------------------||------------------|
A||------------------|------------------||------------------|
E||------------------|------------------||------------------|
   1  +  2  +  3  +  |1  +  2  +  3  +              
Submit corrections



         lessons Hard to play? Try these video lessons and learn fast  lessons
        
↑ Back to top | Tablatures and chords for acoustic guitar and electric guitar, ukulele, drums are parodies/interpretations of the original songs. You may use it for private study, scholarship, research or language learning purposes only