» » »

Mccafferty - Great Tabs

Artists:  A B C D E F G H I J K L M N O P Q R S T U V W X Y Z # 

Great Tabs

(ver. 1) Click to play this song!
Mccafferty
 Rating:
4.4/5 (5 votes)

 Great lessons Tabs too difficult? Try these video lessons and learn fast
 
                [Intro]

e|------------|-----------------|-----------------|-----------------|------------------|
B|------------|-----------------|-----------------|-----------------|------------------|
G|------------|-----------------|-----------------|-----------------|------------------| x1
D|-x--x--x--x-|-5-5--5-5-5--5-5-|-5-5--5-5-5--5-5-|-----------------|------------------|
A|-x--x--x--x-|-2-2--2-2-2--2-2-|-3-3--3-3-3--3-3-|-5-5--5-5-5--5-5-|-5-5--5-5-5--5-5--|
E|-X--x--x--x-|-----------------|-----------------|-3-3--3-3-3--3-3-|-2-2--2-2-2--2-2--|


[Verse]

e|-----------------|-----------------|-----------------|------------------|
B|-----------------|-----------------|-----------------|------------------|
G|-----------------|-----------------|-----------------|------------------| x2
D|-5-5--5-5-5--5-5-|-5-5--5-5-5--5-5-|-----------------|------------------|
A|-2-2--2-2-2--2-2-|-3-3--3-3-3--3-3-|-5-5--5-5-5--5-5-|-5-5--5-5-5--5-5--|
E|-----------------|-----------------|-3-3--3-3-3--3-3-|-2-2--2-2-2--2-2--|
"well I need more than you..."


[Bridge]

e|-----------------|-----------------|-----------------|------------------|
B|-----------------|-----------------|-----------------|------------------|
G|-----------------|-----------------|-----------------|------------------| x2
D|-5-5--5-5-5--5-5-|-5-5--5-5-5--5-5-|-----------------|------------------|
A|-2-2--2-2-2--2-2-|-3-3--3-3-3--3-3-|-5-5--5-5-5--5-5-|-5-5--5-5-5--5-5--|
E|-----------------|-----------------|-3-3--3-3-3--3-3-|-2-2--2-2-2--2-2--|
"what is love she asked..."


[Chrous]

e|-----------------|-----------------|-----------------|------------------|
B|-----------------|-----------------|-----------------|------------------|
G|-----------------|-----------------|-----------------|------------------| x4
D|-5-5--5-5-5--5-5-|-5-5--5-5-5--5-5-|-----------------|------------------|
A|-2-2--2-2-2--2-2-|-3-3--3-3-3--3-3-|-5-5--5-5-5--5-5-|-5-5--5-5-5--5-5--|
E|-----------------|-----------------|-3-3--3-3-3--3-3-|-2-2--2-2-2--2-2--|
"well I hold on for unclean visions..."


[Chorus]

e|-----|-----|-----|-----|
B|-----|-----|-----|-----|
G|-----|-----|-----|-----| x2
D|--5--|--5--|-----|-----|
A|--2--|--3--|--5--|--5--|
E|-----|-----|--3--|--2--|
he plays the chorus again but strums each chord once


[Chrous/Outro]

e|-----------------|-----------------|-----------------|------------------|
B|-----------------|-----------------|-----------------|------------------|
G|-----------------|-----------------|-----------------|------------------| x4
D|-5-5--5-5-5--5-5-|-5-5--5-5-5--5-5-|-----------------|------------------|
A|-2-2--2-2-2--2-2-|-3-3--3-3-3--3-3-|-5-5--5-5-5--5-5-|-5-5--5-5-5--5-5--|
E|-----------------|-----------------|-3-3--3-3-3--3-3-|-2-2--2-2-2--2-2--|            
Submit corrections


        Great lessons Hard to play? Try these video lessons and learn fast Great lessons
        
↑ Back to top | Tablatures and chords for acoustic guitar and electric guitar, ukulele, drums are parodies/interpretations of the original songs. You may use it for private study, scholarship, research or language learning purposes only