» » »

Mc5 - Over And Over Tabs

Artists:  A B C D E F G H I J K L M N O P Q R S T U V W X Y Z # 

Over And Over Tabs

(ver. 2) Click to play this song!
Mc5
 Rating:
4.4/5 (11 votes)

 Over And Over lessons Tabs too difficult? Try these video lessons and learn fast
 
                
[Intro]
   G5         Dm         C5              D5
e|----------|----------|--8----8---8-|----10---10---|
B|-8-8----8-|-6-6----6-|-5-5----5----|-5/7--7-----7-|
G|--7----7--|--7----7--|-------------|--------------|
D|----------|----------|-------------|--------------| (x2)
A|----------|----------|-------------|--------------|
E|----------|----------|-------------|--------------|

   G5         Dm         C5             Em   D5 
e|----------|----------|--8----8---8-|------------|
B|-8-8----8-|-6-6----6-|-5-5----5----|---8-8--7-7-|
G|--7----7--|--7----7--|-------------|-/9-9--7-7--|
D|----------|----------|-------------|------------|
A|----------|----------|-------------|------------|
E|----------|----------|-------------|------------|

  G5 F5 G5 G5    Bb A F  Bb A  F 
e|--------------|----------------|
B|--------------|----------------|
G|--------------|----------------|
D|--------------|-3-2----3--2----|
A|-5/3--5--5----|-1-0-3--1--0--3-|
E|-3/1--3--3----|-----1--------1-|

  G5 F5 G5 G5     Bb A F  Bb A  F 
e|---------------|----------------|
B|---------------|----------------|
G|---------------|----------------|
D|---------------|-3-2----3--2----| (x3)
A|-5/3--5--5--5--|-1-0-3--1--0--3-|
E|-3/1--3--3--3--|-----1--------1-|

   D5         G5  A5  B5 C#5
e|----------|---------------|
B|----------|---------------|
G|----------|---------------|
D|-7-7-7----|---------4-4-6-| (x3)
A|-5-5-5----|-5-5-7-7-2-2-4-|
E|----------|-3-3-5-5-------|

   D5        D7
e|---------|---------------------------------|
B|---------|-7-7-7-7-7-7-7-7-7-7-7-7-7-7-7-7-|
G|---------|-5-5-5-5-5-5-5-5-5-5-5-5-5-5-5-5-|
D|-7-7-7---|-7-7-7-7-7-7-7-7-7-7-7-7-7-7-7-7-|
A|-5-5-5---|-5-5-5-5-5-5-5-5-5-5-5-5-5-5-5-5-|
E|---------|---------------------------------|

[Verse 1]
       G5 F5 G5 G5 F5 G5 Bb5 A5 F5 Bb5 A5 F5 
     e|-----------------|-------------------|
     B|-----------------|-------------------|
     G|-----------------|-------------------|
     D|-----------------|-3--2-----3---2----|
     A|-5/3--5---5/3--5-|-1--0--3--1---0--3-|
     E|-3/1--3---3/1--3-|-------1---------1-|
People talkin 'bout solutions (over and over)

          G5 F5 G5 G5 F5 G5 Bb5 A5 F5 Bb5 A5 F5 
        e|-----------------|-------------------|
        B|-----------------|-------------------|
        G|-----------------|-------------------|
        D|-----------------|-3--2-----3---2----|
        A|-5/3--5---5/3--5-|-1--0--3--1---0--3-|
        E|-3/1--3---3/1--3-|-------1---------1-|
'Bout how we need a revolution (over and over)

      G5 F5 G5 G5 F5 G5 Bb5 A5 F5 Bb5 A5 F5 
    e|-----------------|-------------------|
    B|-----------------|-------------------|
    G|-----------------|-------------------|
    D|-----------------|-3--2-----3---2----|
    A|-5/3--5---5/3--5-|-1--0--3--1---0--3-|
    E|-3/1--3---3/1--3-|-------1---------1-|
Always talking 'bout ecology (over and over)

               G5 F5 G5 G5 F5 G5 Bb5 A5 F5 Bb5 A5 F5 
             e|-----------------|-------------------|
             B|-----------------|-------------------|
             G|-----------------|-------------------|
             D|-----------------|-3--2-----3---2----|
             A|-5/3--5---5/3--5-|-1--0--3--1---0--3-|
             E|-3/1--3---3/1--3-|-------1---------1-|
'Bout how we'll be saved by technology (over and over)

[Pre-Chorus]
           C5 Bb5 G5 
         e|---------|
         B|---------|
         G|---------|
         D|-5--3----|
         A|-3--1--5-|
         E|-------3-|
While the cat next door 

  C5 Bb5  G5 F5 G5
e|----------------|
B|----------------|
G|----------------|
D|-5--3-----------|
A|-3--1---5--3--5-|
E|--------3--1--3-|
Spends all his time

            C5 Bb5 G5 
          e|---------|
          B|---------|
          G|---------|
          D|-5--3----|
          A|-3--1--5-|
          E|-------3-|
Trying to think up new 

  C5 Bb5  G5 F5 G5
e|----------------|
B|----------------|
G|----------------|
D|-5--3-----------|
A|-3--1---5--3--5-|
E|--------3--1--3-|
  Antisocial crimes

[Chorus]
   D5        G5  A5  B5 C#5
e|---------|---------------|
B|---------|---------------|
G|---------|---------------|
D|-7-7-7---|---------4-4-6-|
A|-5-5-5---|-5-5-7-7-2-2-4-|
E|---------|-3-3-5-5-------|
I said no             I said

   D5        G5  A5  B5 C#5
e|---------|---------------|
B|---------|---------------|
G|---------|---------------|
D|-7-7-7---|---------4-4-6-|
A|-5-5-5---|-5-5-7-7-2-2-4-|
E|---------|-3-3-5-5-------|
hang on a minute now

   D5        G5  A5  B5 C#5
e|---------|---------------|
B|---------|---------------|
G|---------|---------------|
D|-7-7-7---|---------4-4-6-|
A|-5-5-5---|-5-5-7-7-2-2-4-|
E|---------|-3-3-5-5-------|
I said let me outta here

   D5        D7
e|---------|---------------------------------|
B|---------|-7-7-7-7-7-7-7-7-7-7-7-7-7-7-7-7-|
G|---------|-5-5-5-5-5-5-5-5-5-5-5-5-5-5-5-5-|
D|-7-7-7---|-7-7-7-7-7-7-7-7-7-7-7-7-7-7-7-7-|
A|-5-5-5---|-5-5-5-5-5-5-5-5-5-5-5-5-5-5-5-5-|
E|---------|---------------------------------|
I said no, no, no -- waah

[Verse 2]
      G5 F5 G5 G5 F5 G5 Bb5 A5 F5 Bb5 A5 F5 
    e|-----------------|-------------------|
    B|-----------------|-------------------|
    G|-----------------|-------------------|
    D|-----------------|-3--2-----3---2----|
    A|-5/3--5---5/3--5-|-1--0--3--1---0--3-|
    E|-3/1--3---3/1--3-|-------1---------1-|
People talking revolution (over and over)

     G5 F5 G5 G5 F5 G5 Bb5 A5 F5 Bb5 A5 F5 
   e|-----------------|-------------------|
   B|-----------------|-------------------|
   G|-----------------|-------------------|
   D|-----------------|-3--2-----3---2----|
   A|-5/3--5---5/3--5-|-1--0--3--1---0--3-|
   E|-3/1--3---3/1--3-|-------1---------1-|
About a mass execution (over and over)

        G5 F5 G5 G5 F5 G5 Bb5 A5 F5 Bb5 A5 F5 
      e|-----------------|-------------------|
      B|-----------------|-------------------|
      G|-----------------|-------------------|
      D|-----------------|-3--2-----3---2----|
      A|-5/3--5---5/3--5-|-1--0--3--1---0--3-|
      E|-3/1--3---3/1--3-|-------1---------1-|
Well I was working in a factory (over and over)

             G5 F5 G5 G5 F5 G5 Bb5 A5 F5 Bb5 A5 F5 
           e|-----------------|-------------------|
           B|-----------------|-------------------|
           G|-----------------|-------------------|
           D|-----------------|-3--2-----3---2----|
           A|-5/3--5---5/3--5-|-1--0--3--1---0--3-|
           E|-3/1--3---3/1--3-|-------1---------1-|
Just trying to make it satisfactory (over and over)

[Pre-Chorus]
              C5 Bb5 G5 
            e|---------|
            B|---------|
            G|---------|
            D|-5--3----|
            A|-3--1--5-|
            E|-------3-|
But all these inclinations 
     
       C5 Bb5  G5 F5 G5
     e|----------------|
     B|----------------|
     G|----------------|
     D|-5--3-----------|
     A|-3--1---5--3--5-|
     E|--------3--1--3-|
toward manic frustration

         C5 Bb5 G5 
       e|---------|
       B|---------|
       G|---------|
       D|-5--3----|
       A|-3--1--5-|
       E|-------3-|
I want my vaccination 

  C5 Bb5  G5 F5 G5
e|----------------|
B|----------------|
G|----------------|
D|-5--3-----------|
A|-3--1---5--3--5-|
E|--------3--1--3-|
against castration

  C5 Bb5 G5 
e|---------|
B|---------|
G|---------|
D|-5--3----|
A|-3--1--5-|
E|-------3-|
   Vietnam

  C5 Bb5  G5 F5 G5
e|----------------|
B|----------------|
G|----------------|
D|-5--3-----------|
A|-3--1---5--3--5-|
E|--------3--1--3-|
what a sexy war

       C5 Bb5 G5 
     e|---------|
     B|---------|
     G|---------|
     D|-5--3----|
     A|-3--1--5-|
     E|-------3-|
Uncle Sam's a pimp, 

  C5 Bb5  G5 F5 G5
e|----------------|
B|----------------|
G|----------------|
D|-5--3-----------|
A|-3--1---5--3--5-|
E|--------3--1--3-|
wants us to be whores

[Chorus]
   D5        G5  A5  B5 C#5
e|---------|---------------|
B|---------|---------------|
G|---------|---------------|
D|-7-7-7---|---------4-4-6-|
A|-5-5-5---|-5-5-7-7-2-2-4-|
E|---------|-3-3-5-5-------|
I said no             I said

   D5        G5  A5  B5 C#5
e|---------|---------------|
B|---------|---------------|
G|---------|---------------|
D|-7-7-7---|---------4-4-6-|
A|-5-5-5---|-5-5-7-7-2-2-4-|
E|---------|-3-3-5-5-------|
I can't take much more of this

   D5        G5  A5  B5 C#5
e|---------|---------------|
B|---------|---------------|
G|---------|---------------|
D|-7-7-7---|---------4-4-6-|
A|-5-5-5---|-5-5-7-7-2-2-4-|
E|---------|-3-3-5-5-------|
You better let me outta here

   D5        D7
e|---------|---------------------------------|
B|---------|-7-7-7-7-7-7-7-7-7-7-7-7-7-7-7-7-|
G|---------|-5-5-5-5-5-5-5-5-5-5-5-5-5-5-5-5-|
D|-7-7-7---|-7-7-7-7-7-7-7-7-7-7-7-7-7-7-7-7-|
A|-5-5-5---|-5-5-5-5-5-5-5-5-5-5-5-5-5-5-5-5-|
E|---------|---------------------------------|
I said no, no, no -- waah

[Solo]
  G5 F5 G5 G5 F5 G5 Bb5 A5 F5 Bb5 A5 F5 
e|-----------------|-------------------|
B|-----------------|-------------------|
G|-----------------|-------------------|
D|-----------------|-3--2-----3---2----|(x4)
A|-5/3--5---5/3--5-|-1--0--3--1---0--3-|
E|-3/1--3---3/1--3-|-------1---------1-|

  C5 Bb5 G5  C5 Bb5 G5 F5 G5
e|---------|----------------|
B|---------|----------------|
G|---------|----------------|
D|-5--3----|-5--3-----------| (x2)
A|-3--1--5-|-3--1----5-/3/5-|
E|-------3-|---------3-/1/3-|

   D5        G5  A5  B5 C#5
e|---------|---------------|
B|---------|---------------|
G|---------|---------------|
D|-7-7-7---|---------4-4-6-| (x3)
A|-5-5-5---|-5-5-7-7-2-2-4-|
E|---------|-3-3-5-5-------|

   D5        D7
e|---------|---------------------------------|
B|---------|-7-7-7-7-7-7-7-7-7-7-7-7-7-7-7-7-|
G|---------|-5-5-5-5-5-5-5-5-5-5-5-5-5-5-5-5-|
D|-7-7-7---|-7-7-7-7-7-7-7-7-7-7-7-7-7-7-7-7-|
A|-5-5-5---|-5-5-5-5-5-5-5-5-5-5-5-5-5-5-5-5-|
E|---------|---------------------------------|

  G5 F5 G5 G5 Bb A F Bb  A  F 
e|-----------|----------------|
B|-----------|----------------|
G|-----------|----------------|
D|-----------|-3-2----3--2----| (x4)
A|-5/3--5--5-|-1-0-3--1--0--3-|
E|-3/1--3--3-|-----1--------1-|

   G       N.C.
e|-------|-------|-------|-------|
B|-------|-------|-------|-------|
G|-------|-------|-------|-------|
D|-5-----|-------|-------|-------|
A|-5-----|-------|-------|-------|
E|-3-----|-------|-------|-------|

[Interlude]
   G          Dm         C               D
e|----------|----------|--8----8---8-|----10---10---|
B|-8-8----8-|-6-6----6-|-5-5----5----|-5/7--7-----7-|
G|--7----7--|--7----7--|-------------|--------------|
D|----------|----------|-------------|--------------|
A|----------|----------|-------------|--------------|
E|----------|----------|-------------|--------------|
                     Ooh hoo-oo  ooh-hoo-hoo-hoo

   G          Dm         C               D
e|----------|----------|--8----8---8-|----10---10---|
B|-8-8----8-|-6-6----6-|-5-5----5----|-5/7--7-----7-|
G|--7----7--|--7----7--|-------------|--------------|
D|----------|----------|-------------|--------------|
A|----------|----------|-------------|--------------|
E|----------|----------|-------------|--------------|
  Oh,     you see, I need release for my frustration

   G          Dm         C               D
e|----------|----------|--8----8---8-|----10---10---|
B|-8-8----8-|-6-6----6-|-5-5----5----|-5/7--7-----7-|
G|--7----7--|--7----7--|-------------|--------------|
D|----------|----------|-------------|--------------|
A|----------|----------|-------------|--------------|
E|----------|----------|-------------|--------------|
Oh, don't you see,      I can't hold my aggravation

   G          Dm         C              Em   D 
e|----------|----------|--8----8---8-|------------|
B|-8-8----8-|-6-6----6-|-5-5----5----|---8-8--7-7-|
G|--7----7--|--7----7--|-------------|-/9-9--7-7--|
D|----------|----------|-------------|------------|
A|----------|----------|-------------|------------|
E|----------|----------|-------------|------------|
   Oh...     Ooh         ooh-hoo-hoo no, no, no, no

[Verse 3]
  G5 F5 G5 G5 F5 G5 Bb5 A5 F5 Bb5 A5 F5 
e|-----------------|-------------------|
B|-----------------|-------------------|
G|-----------------|-------------------|
D|-----------------|-3--2-----3---2----|
A|-5/3--5---5/3--5-|-1--0--3--1---0--3-|
E|-3/1--3---3/1--3-|-------1---------1-|
I see people dying (over and over)

             G5 F5 G5 G5 F5 G5 Bb5 A5 F5 Bb5 A5 F5 
           e|-----------------|-------------------|
           B|-----------------|-------------------|
           G|-----------------|-------------------|
           D|-----------------|-3--2-----3---2----|
           A|-5/3--5---5/3--5-|-1--0--3--1---0--3-|
           E|-3/1--3---3/1--3-|-------1---------1-|
Why don't I sit around crying? (over and over)

  G5 F5 G5 G5 F5 G5 Bb5 A5 F5 Bb5 A5 F5 
e|-----------------|-------------------|
B|-----------------|-------------------|
G|-----------------|-------------------|
D|-----------------|-3--2-----3---2----|
A|-5/3--5---5/3--5-|-1--0--3--1---0--3-|
E|-3/1--3---3/1--3-|-------1---------1-|
I see people taking (over and over)

              G5 F5 G5 G5 F5 G5 Bb5 A5 F5 Bb5 A5 F5 
            e|-----------------|-------------------|
            B|-----------------|-------------------|
            G|-----------------|-------------------|
            D|-----------------|-3--2-----3---2----|
            A|-5/3--5---5/3--5-|-1--0--3--1---0--3-|
            E|-3/1--3---3/1--3-|-------1---------1-|
Why don't I sit around waiting? (over and over)

[Pre-Chorus]
     C5 Bb5 G5 
   e|---------|
   B|---------|
   G|---------|
   D|-5--3----|
   A|-3--1--5-|
   E|-------3-|
The cop on the street 

       C5 Bb5  G5 F5 G5
     e|----------------|
     B|----------------|
     G|----------------|
     D|-5--3-----------|
     A|-3--1---5--3--5-|
     E|--------3--1--3-|
wants us down on our needs

       C5 Bb5 G5 
     e|---------|
     B|---------|
     G|---------|
     D|-5--3----|
     A|-3--1--5-|
     E|-------3-|
The president says 

      C5 Bb5  G5 F5 G5
    e|----------------|
    B|----------------|
    G|----------------|
    D|-5--3-----------|
    A|-3--1---5--3--5-|
    E|--------3--1--3-|
we've got to have peace

      C5 Bb5 G5 
    e|---------|
    B|---------|
    G|---------|
    D|-5--3----|
    A|-3--1--5-|
    E|-------3-|
The other cat says we need 

  C5 Bb5  G5 F5 G5
e|----------------|
B|----------------|
G|----------------|
D|-5--3-----------|
A|-3--1---5--3--5-|
E|--------3--1--3-|
    our liberation

       C5 Bb5 G5 
     e|---------|
     B|---------|
     G|---------|
     D|-5--3----|
     A|-3--1--5-|
     E|-------3-|
The hippies telling us 

           C5 Bb5  G5 F5 G5
         e|----------------|
         B|----------------|
         G|----------------|
         D|-5--3-----------|
         A|-3--1---5--3--5-|
         E|--------3--1--3-|
we're in the love generation

[Chorus]
   D5        G5  A5  B5 C#5
e|---------|---------------|
B|---------|---------------|
G|---------|---------------|
D|-7-7-7---|---------4-4-6-|
A|-5-5-5---|-5-5-7-7-2-2-4-|
E|---------|-3-3-5-5-------|
I said whoa          I said

   D5        G5  A5  B5 C#5
e|---------|---------------|
B|---------|---------------|
G|---------|---------------|
D|-7-7-7---|---------4-4-6-|
A|-5-5-5---|-5-5-7-7-2-2-4-|
E|---------|-3-3-5-5-------|
hang on a minute now

   D5        G5  A5  B5 C#5
e|---------|---------------|
B|---------|---------------|
G|---------|---------------|
D|-7-7-7---|---------4-4-6-|
A|-5-5-5---|-5-5-7-7-2-2-4-|
E|---------|-3-3-5-5-------|
This can't go on much longer

   D5        D7
e|---------|---------------------------------|
B|---------|-7-7-7-7-7-7-7-7-7-7-7-7-7-7-7-7-|
G|---------|-5-5-5-5-5-5-5-5-5-5-5-5-5-5-5-5-|
D|-7-7-7---|-7-7-7-7-7-7-7-7-7-7-7-7-7-7-7-7-|
A|-5-5-5---|-5-5-5-5-5-5-5-5-5-5-5-5-5-5-5-5-|
E|---------|---------------------------------|
I said whoa, whoa, whoa -- waah

[Outro]
  G5 F5 G5 G5 F5 G5 Bb5 A5 F5 Bb5 A5 F5 
e|-----------------|-------------------|
B|-----------------|-------------------|
G|-----------------|-------------------|
D|-----------------|-3--2-----3---2----| (x4)
A|-5/3--5---5/3--5-|-1--0--3--1---0--3-|
E|-3/1--3---3/1--3-|-------1---------1-|
                    (Over and over)

  C5 Bb5 G5 C5 Bb5  G5 F5 G5
e|---------|----------------|
B|---------|----------------|
G|---------|----------------|
D|-5--3----|-5--3-----------| (x3)
A|-3--1--5-|-3--1----5-/3/5-|
E|-------3-|---------3-/1/3-|

  C5 Bb5 G5 C5 Bb5 F5 G5
e|---------|------------|
B|---------|------------|
G|---------|------------|
D|-5--3----|-5--3-------|
A|-3--1--5-|-3--1--3--5-|
E|-------3-|-------1--3-|            
Submit corrections


        Over And Over lessons Hard to play? Try these video lessons and learn fast Over And Over lessons
        
↑ Back to top | Tablatures and chords for acoustic guitar and electric guitar, ukulele, drums are parodies/interpretations of the original songs. You may use it for private study, scholarship, research or language learning purposes only