» » »

Mayhem - Freezing Moon Tabs

Artists:  A B C D E F G H I J K L M N O P Q R S T U V W X Y Z # 

Freezing Moon Tabs

(ver. 7) Click to play this song!
Mayhem
 Rating:
4.3/5 (15 votes)

 Freezing Moon lessons Tabs too difficult? Try these video lessons and learn fast
 
                e|----------------------------------------------------------------|
B|----------------------------------------------------------------|
G|----------------------------------------------------------------|
D|----------------------------------------------------------------|
A|----------------------------------------------------------------|
E|--0-0-0--5--6-6-5-3-1-0-----------------------------------------|

e|-------------------------------------------------------------------------------|
B|-------------------------------------------------------------------------------|
G|-------------------------------------------------------------------------------|
D|-------------------------------------------------------------------------------|
A|-------------------------------------------------------------------------------|
E|--0-0-0--7--7-7--0-0-0--6--6-6--0-0-0--7--7-7--0-0-0--8--8-8-------------------|


e|--------------------------------------------------------------------------------------|
B|--------------------------------------------------------------------------------------|
G|--------------------------------------------------------------------------------------|
D|--------------------------------------------------------------------------------------|
A|------------------------------------7-7-7-7-7-7-7-7-----------------------------------|
E|--0-0-0-0-0-0-0-0--6-6-6-6-6-6-6-6------------------6-6-6-6-6-6-6-6-6-----------------|

e|-------------------------------------------------------------------------------------|
B|-------------------------------------------------------------------------------------|
G|-------------------------------------------------------------------------------------|
D|-------------------------------------------------------------------------------------|
A|--------------------------------------------------7-7-7-7----------------------------|
E|--0-0-0-0-0-0-0-0-0-0-0-0-0-0-0-0-6-6-6-6-6-6-6-6---------6-6-6-6--------------------|
               1    2    1    2

e|--------------------------------------|
B|--------------------------------------|
G|--------------------------------------|
D|--------------------------------------|
A|--------------------------------------|
E|-0-1-0-0-0-1--------------------------|
                2            
Submit corrections


        Freezing Moon lessons Hard to play? Try these video lessons and learn fast Freezing Moon lessons
        
↑ Back to top | Tablatures and chords for acoustic guitar and electric guitar, ukulele, drums are parodies/interpretations of the original songs. You may use it for private study, scholarship, research or language learning purposes only