» » »

Mavericks - What A Crying Shame - Multi Guitar Arrangement Tabs

Artists:  A B C D E F G H I J K L M N O P Q R S T U V W X Y Z # 

What A Crying Shame - Multi Guitar Arrangement Tabs

(ver. 1) Click to play this song!
Mavericks
 Rating:
4/5 (4 votes)

 What A Crying Shame - Multi Guitar Arrangement lessons Tabs too difficult? Try these video lessons and learn fast
 
                What A Crying Shame
By Kostas and Raul Malo


        
G5        35xxxx  
D5        x57xxx   
G5 type2  xx00xx  
C5        x35xxx           
G         3554xx   
A5        x02xxx

Gtr I   Electric Clean
Gtr II  Acoustic Steel
Gtr III Electric 12 String
Gtr IV  Electric
Gtr V   Electric

Standard Tuning

   Intro
    Moderate Country Rock Q=114

    G5                     D5      G5 type2 C5
   4/4
    Gtr I
    E  E E E   E E E   E    E  E E E E E E E
    |  | | |   | | |        |  | | | | | | |
    /  / / /   / / /        /  / / / / / / /

    Gtr IV
                            ~~~
    Q.     E a E E S S E   +Q.     E E E E E
||-----------------------|-------------------|
||o--------------3-3h5-3-|-(3)-------1-0-1-3-|
||--0------0-2s4---------|-------------------|
||-----------------------|-------------------|
||o----------------------|-------------------|
||-----------------------|-------------------|
|
|   Gtr III
|                           ~~~
|   Q.     E a E E S S E   +Q.     E E E E E
||-----------------------|-------------------|
||o----------------------|-------------------|
||-----------------------|-------------------|
||-----------------------|-----------------0-|
||o--------------5-5h7-5-|-(5)-------3-2-3---|
||--3------3-5s7---------|-------------------|
|
|   Gtr II
|   Q    E E   E E E   E    E  E E E E E E E
||--3----3-3---3-3-3---3-|--2--2-2---0-0-0---|
||o-3----3-3---3-3-3---3-|--3--3-3-0-3-3-3---|
||--0----0-0---0-0-0---0-|--2--2-2-0-0-0-0---|
||--0----0-----0---0---0-|--0----0-0-2-2-2-2-|
||o----------------------|--0--------3---3-3-|
||--3----3---------3-----|-------------------|


  G5                     D5        C5
  E  E E E   E E   E E    E  E E E E E E E
  |  | | |   | |   | |    |  | | | | | | |
  /  / / /   / /   / /    /  / / / / / / /

                          ~~~
  Q.     E a E E a E E   +Q.     E E E E E
|----------------------|--------------------||
|--------------3-3h5-3-|-(3)-------3-0-1-3-o||
|-0------0-2s4---------|--------------------||
|----------------------|--------------------||
|----------------------|-------------------o||
|----------------------|--------------------||
|
|                         ~~~
| Q.     E a E E a E E   +Q.     E E E E E
|----------------------|--------------------||
|----------------------|-------------------o||
|----------------------|--------------------||
|----------------------|-----------------0--||
|--------------5-5h7-5-|-(5)-------3-2-3---o||
|-3------3-5s7---------|--------------------||
|
| Q    E E   E E   E E    E  E E E E E E E
|-3----3-3---3-3---3-3-|--2--2-2---0-0-0-0--||
|-3----3-3---3-3---3-3-|--3--3-3-0-3-3-3-3-o||
|-0----0-0---0-0---0-0-|--2--2-2---0-0-0-0--||
|-0----0-----0-0---0-0-|--0----0-0-2-2-2-2--||
|--------------------0-|--0------0-3---3---o||
|-3----3-----------3---|--------------------||


 1st Verse
  G5                  D5      C5        G5                D5      C5
  Gtr I
  E E E E  E  E E E   E E E E E E E E   E E E E E E E E   E E E E E E E E
  |   | |  |  | | |   | | | | | | | |   | | | |   | | |   | | | | | | | |
  /   / /  /  / / /   / / / / / / / /   / / / /   / / /   / / / / / / / /

  Gtr II
  E E E E +E  E E E   E E E E E E E E   E E E E E E E E   E E E E E E E E
|-3-3-3-3-(3)-3-3-0-|---2-2-0-3-0-0-0-|-3-3-3-3-3-3-3---|-2-2-2-2-3-3---3-|
|-3-3-3-3-(3)-3-3-0-|-3-3-3-0-3-3-3-0-|-3-3-3-3-3-3-3---|-3-3-3-3-1-1-1-1-|
|-0---0-0-(0)-0-0-0-|-2-2-2-0-0-0-0-0-|-0-0-0-0-0-0-0-0-|-2-2-2-2-0-0-0-0-|
|-----0-0-(0)-0-0---|-0---0---2-2-2---|-0---0---0---0-0-|-0---0---2-2-2---|
|-------------------|-0-------3-3-3---|---------------0-|-0-------3-------|
|-----3---------3---|-----------------|-3---3---3---3---|-----------------|


  G5                D5      C5        G5                D5      C5
  E E E E E E E E   E E E E E E E E   E E E E E E E E   E E E E E E E E
  |   | | | | | |   | | | | | | | |   | | | |   | | |   | | | | | | | |
  /   / / / / / /   / / / / / / / /   / / / /   / / /   / / / / / / / /

  E E E E E E E E   E E E E E E E E   E E E E E E E E   E E E E E E E E
|---3---3---3-3---|---2---0-0-0-0---|-3---3-3---3-3---|-2-2-2-0---0---0-|
|-0-3-0-0-0-0-0---|-3-3-3-3-3-3-3-3-|-3-3-3-3-3-3-3-0-|-3-3-3-----3-3-3-|
|-0-0-0-0-0-0-0-0-|-2-2-2-2-0-0-0-0-|-0-0-0-0-0-0-0-0-|-2-2-2---0-0-0---|
|-0---0-0-0-0-0-0-|-0-0-0---2---2-0-|-0---0-0-0-0-0---|-0---0---2---2---|
|---------------0-|-0-------3---3---|-----------------|---------3---3---|
|-3---3---3---3---|-----------------|-3---3-----------|-----------------|


    G5                D5      C5        G5                D5      C5
    E E E E E E E E   E E E E E E E E   E E E E E E E E   E E E E E E E E
    |   | | | | | |   | | | | | | | |   | | | |   | | |   | | | | | | | |
    /   / / / / / /   / / / / / / / /   / / / /   / / /   / / / / / / / /

    E E E E E E E E   E E E E E E E E   E E E E E E E E   E E E E E E E E
||--3-3-3-3---3-3-0-|-2-2-2-----3-3-3-|-3-3-3-3---3-----|---2-2-0---0------|
||o-3---3-3---3-3-0-|-3-3-3-0---1-1-1-|-0-0-0-0-0-0---0-|-3-3-3-3---3---0--|
||--0---0-0---0-0---|-2-2-2-0-0-0-0-0-|-0---0-0-0-0-0-0-|-2-2-2---0-0-0-0--|
||--0---0---0---0---|-0-0-0---2-2-2-2-|-0---0---0---0-0-|-0---0---2-2-2-0--|
||o-----------------|-0-0-0---3---3---|-----------------|-0---0---3---3----|
||--3---3---3---3---|-----------------|-3---3---3---3---|------------------|


  G5                D5      C5        G5                D5      C5
  E E E E E E E E   E E E E E E E E   E E E E E E E E   E E E E E E E E
  |   | | | | | |   | | | | | | | |   | | | |   | | |   | | | | | | | |
  /   / / / / / /   / / / / / / / /   / / / /   / / /   / / / / / / / /

  E E E E E E E E   E E E E E E E E   E E E E E E E E   E E E E E E E E
|-3---3-3---3-3-3-|-2-2-2-------0-0-|-3-3-3---3-3-3---|-2-2-2---3-3-3---||
|-3-3-3-3---3-3-3-|-3-3-3-0-3-3-3-3-|-3---3-3-3-3-3-3-|-3-3-3-0-1-1-1---||
|-0-0-0-0-0-0-0-0-|-2-2-2-0-0-0-0-0-|-0---0-0-0-0-0-0-|-2-2-2-0-0-0-0-0-||
|-0---0---0---0-0-|-0-0-0-0-2-2-2---|-0---0-0-0---0-0-|-0-0-0-0-2-2-2-0-||
|-----------------|-----0-0-3---3---|-------------0-0-|-0-0-0---3-3-3---||
|-3---3---3---3---|-----------------|-3---3---3---3---|-----------------||


 Chorus
  $
  G5                D5      C5        G5                  D5      C5
  Gtr I
  Q   E E E E E E   Q   E E E E E E    E  E E E E E E E   Q   E E E E E E
  |     | | | | |   |     | | | | |    |  | | | | | | |   |     | | | | |
  /     / / / / /   /     / / / / /    /  / / / / / / /   /     / / / / /

  Gtr V
  E E E E E E E E   E E E E E E E E   +E  E E E E E E E   E E E E E E E E
|---3-----3-------|---2-----0-------|-----3-----3-------|---2-----0-------|
|-3---3-----3---3-|-----3-----3---3-|-(3)-3-3-----3---3-|-----3-----3---3-|
|-0-----0-----0---|-------0-----0---|-------0-0-----0---|-------0-----0---|
|-0-----------0---|-----------------|-------------------|-----------------|
|-----------------|-----------------|-------------------|-----------------|
|-----------------|-----------------|-------------------|-----------------|
|
| Gtr II
| Q   E E E E E E   E E E E E E E E    E  E E E E E E E   E E E E E E E E
|-3---3-3-3-3-3-3-|-2---2---3-3-3-3-|--3--3-3-3---3---0-|-2-2-2---3-3-3-3-|
|-0---0-0-0-0-0-0-|-3---3-3-1-1-1-1-|--0--0-0-0-0-0-0-0-|-3-3-3---1-1-1-1-|
|-0---0-0-0-0-0-0-|-2-2-2-2-0-0-0-0-|--0--0-0
            
Submit corrections


        What A Crying Shame - Multi Guitar Arrangement lessons Hard to play? Try these video lessons and learn fast What A Crying Shame - Multi Guitar Arrangement lessons
        
↑ Back to top | Tablatures and chords for acoustic guitar and electric guitar, ukulele, drums are parodies/interpretations of the original songs. You may use it for private study, scholarship, research or language learning purposes only