» » »

Matt Simons - Catch And Release Tabs

Artists:  A B C D E F G H I J K L M N O P Q R S T U V W X Y Z # 

Catch And Release Tabs

(ver. 1) Click to play this song!
Matt Simons
 Rating:
3.2/5 (23 votes)

 Catch And Release  lessons Tabs too difficult? Try these video lessons and learn fast
 
                                                                                    __
|----0---0---0---0--0---------4-----4-----4-----4-----------------|   |
|---------------------------5-----5-----5-----5-----5---5---------|   |
|--4-------4-------4------6-----------6-----------6---------------|   |
|------6-------6-----6----------6-----------6---------6-----------|   |
|-----------------------------------------------------------------|   |
|-----------------------------------------------------------------|   |
                                                                       X4
|----0-----0-----0-----0-----0---0---0-----0-----0-----0-----0----|   |
|------9-----9-----9-----9-------------9-----9-----9-----9--------|   |
|--8-----------8-----------8---8---8-----------8-----------8------|   |
|--------6-----------6-------------------6-----------6---------6--|   |
|-----------------------------------------------------------------|   |
|-----------------------------------------------------------------| __|

PRE-CHORUS

|------4-----4-----4-----4---4--------0------0---9---------0-----0----0---|
|----5-----5-----5-----5----------------9------9-------------9------------|
|--------4-----------------4----------------------------------------------|
|--------------6--------------------------11------------11---------11-----|
|--7-----------------7---------7----9------------9-------------9----------|
|-------------------------------------------------------------------------|

|-----------9---------0-------------------------------------------------------------|
|-------12----12--------12----12---12--------10------10------10-----10--------------|
|-----9----------9-------------------------9-------9-------9------9-------9----9----|
|---------9---------9------------9--------------11--------------9-------------------|
|--11------------11--------11-----------12--------------12-------------12---11------|
|-----------------------------------------------------------------------------------|

|------4-----4-----4-----4---4--------0------0-----0------0-----0----0---|
|----5-----5-----5-----5----------------9------9-----9------9------------|
|--------4-----------------4---------------------------------------------|
|--------------6--------------------------11-----------11---------11-----|
|--7-----------------7---------7----9------------9------------9----------|
|------------------------------------------------------------------------|

                                                                   Let ring--------|
|-------------9----------------------------------------------------9----------------|
|-------12-----------12-----12----12-------------10------10--------12---------------|
|-----9-----9------9------9--------------------9-------9-------9---9----------------|
|---------9-------------9---------------------------11------11-----11---------------|
|--11-----------11-------------11-----------12--------------------------------------|
|-----------------------------------------------------------------------------------|

CHORUS

|------4-----4-----4-----4---4--------0------0-----0-----0--------------|
|----5-----5-----5-----5----------------9------9-----9-----9---9--------|
|--------4-----------------4--------------------------------------------|
|--------------6--------------------------11-----------------11---------|
|--7-----------------7---------7-----------------11---------------------|
|-----------------------------------9------------------9----------9-----|

|----0-----0-----0-----0-----0--------------------------------------------------|
|------9-----9-----9-----9---------------10------10------10-----10--------------|
|--------8-----------8-----------------9-------9-------9------9-------9----9----|
|------------------------------9------------11--------------9-------------------|
|-----------------------------------12--------------12-------------12---11------|
|--9-----------9-----------9----------------------------------------------------|

|------4-----4-----4-----4---4--------0------0-----0-----0--------------|
|----5-----5-----5-----5----------------9------9-----9-----9---9--------|
|--------4-----------------4--------------------------------------------|
|--------------6--------------------------11-----------------9----------|
|--7-----------------7---------7-----------------11---------------------|
|-----------------------------------9------------------9----------9-----|

|----0-----0-----0-----0-----0------------------------------------------------|
|------9-----9-----9-----9---------------10------10---10-----10------10-------|
|--------8-----------8-----------------9-------9----9------9-------9----------|
|------------------------------9------------11-----------9--------------------|
|-----------------------------------12--------------------------12------------|
|--9-----------9-----------9--------------------------------------------9-----|

Over the "Da Da Dum" section play the same as the verses X2.

Repeat all above.

OUTRO

|------4-----4-----4-----4---4--------0------0-----0-----0--------------|
|----5-----5-----5-----5----------------9------9-----9-----9---9--------|
|--------4-----------------4--------------------------------------------|
|--------------6--------------------------11-----------------11---------|
|--7-----------------7---------7-----------------11---------------------|
|-----------------------------------9------------------9----------9-----|

|----0-----0-----0-----0-----0--------------------------------------------------|
|------9-----9-----9-----9---------------10------10------10-----10--------------|
|--------8-----------8-----------------9-------9-------9------9-------9----9----|
|------------------------------9------------11--------------9-------------------|
|-----------------------------------12--------------12-------------12---11------|
|--9-----------9-----------9----------------------------------------------------|

|------4-----4-----4-----4---4--------0------0-----0-----0--------------|
|----5-----5-----5-----5----------------9------9-----9-----9---9--------|
|--------4-----------------4--------------------------------------------|
|--------------6--------------------------11-----------------11---------|
|--7-----------------7---------7-----------------11---------------------|
|-----------------------------------9------------------9----------9-----|

                                                           Let ring--------|
|----0-----0-----7-----7-----7-----------------------------9----------------|
|------9-----9-----9-----9---------------10------10--------12--------5------|
|--------8-----------8-----------------9-------9-------9---9---------4------|
|------------------------------9------------11------11-----11--------6------|
|-----------------------------------12-------------------------------7------|
|--9-----------9-----------9------------------------------------------------|
            
Submit corrections


        Catch And Release  lessons Hard to play? Try these video lessons and learn fast Catch And Release  lessons
        
↑ Back to top | Tablatures and chords for acoustic guitar and electric guitar, ukulele, drums are parodies/interpretations of the original songs. You may use it for private study, scholarship, research or language learning purposes only