» » »

Matt Mays - Your Heart Tabs

Artists:  A B C D E F G H I J K L M N O P Q R S T U V W X Y Z # 

Your Heart Tabs

(ver. 1) Click to play this song!
Matt Mays
 Rating:
4.3/5 (6 votes)

 Your Heart lessons Tabs too difficult? Try these video lessons and learn fast
 
                Standard Tuning
 
Chords Used

  G    D    C    Em   G    D    C    D
[-3-][-3-][-0-][-0-][-3-][-5-][-8-][-10-]
[-0-][-2-][-1-][-0-][-3-][-7-][-8-][-10-]
[-0-][-3-][-0-][-0-][-4-][-7-][-9-][-11-]
[-0-][-0-][-2-][-2-][-5-][-7-][-10][-12-]
[-2-][---][-3-][-2-][-5-][-5-][-10][-12-]
[-3-][---][-0-][-0-][-3-][---][-8-][-10-]

For the most part of this song he plays the regular chords
while he's singing and then strums the same chords further 
up the neck of the guitar or plays little riffs using these
chords

Intro

G      D      C      D   4 times


G        D      C        D
Do me a favour if ya got nothing to do

[-3---5---8----10-]
[-3---7---8----10-]
[-4---7---9----11-]
[-5---7---10---12-]
[-5---5---10---12-]
[-3-------8----10-]

G          D           C              D
Follow me outside this party dont seem right for you

[-----3---------5----------8-----------10-------]
[-------3---------7----------8------------10----]
[---------4---------7----9------9---11-------11-]
[---5---------7-------10---------12-------------]
[-----------5-----------------------------------]
[-3---------------------------------------------]

   G            D           C          D
Your boyfriends drunk he's passed out on the ground

[-3---5---8----10-]
[-3---7---8----10-]
[-4---7---9----11-]
[-5---7---10---12-]
[-5---5---10---12-]
[-3-------8----10-]

    G        D       C         D
So follow me out to where nobody's around

[-----3---------5----------8-----------10-------]
[-------3---------7----------8------------10----]
[---------4---------7----9------9---11-------11-]
[---5---------7-------10---------12-------------]
[-----------5-----------------------------------]
[-3---------------------------------------------]

     G         D           C         D
Your heart and mine should really spend some time together


G        D        C        D


      G           D                  C            D
The blood'll be flowing through our veins like a stream in stormy weather


G        D        C        D


   G            D            C       D
I feel it in my blood and in every one of my veins

[-3---5---8----10-]
[-3---7---8----10-]
[-4---7---9----11-]
[-5---7---10---12-]
[-5---5---10---12-]
[-3-------8----10-]


         G          D           C      D

[-----3---------5----------8-----------10-------]
[-------3---------7----------8------------10----]
[---------4---------7----9------9---11-------11-]
[---5---------7-------10---------12-------------]
[-----------5-----------------------------------]
[-3---------------------------------------------]


      G          D          C         D
Your boyfriends drunk he's passed out on the ground

[-3---5---8----10-]
[-3---7---8----10-]
[-4---7---9----11-]
[-5---7---10---12-]
[-5---5---10---12-]
[-3-------8----10-]


    G        D       C        D
So follow me out to where nobody's around

[-----3---------5----------8-----------10-------]
[-------3---------7----------8------------10----]
[---------4---------7----9------9---11-------11-]
[---5---------7-------10---------12-------------]
[-----------5-----------------------------------]
[-3---------------------------------------------]


     G          D           C        D
Your heart and mine should really spend some time together

G        D        C       D


      G           D                 C            D
The blood'll be flowin through our veins like a stream in stormy weather


G        D        C       D


Insert Organ solo here--for this part just play this:

G        D        C       D

[-3---5---8----10-]
[-3---7---8----10-]
[-4---7---9----11-]
[-5---7---10---12-]
[-5---5---10---12-]
[-3-------8----10-]

G        D        C       D

[-----3---------5----------8-----------10-------]
[-------3---------7----------8------------10----]
[---------4---------7----9------9---11-------11-]
[---5---------7-------10---------12-------------]
[-----------5-----------------------------------]
[-3---------------------------------------------]


     G              D         C         D
Your done with this do and I do believe it's done with you

[-3---5---8----10-]
[-3---7---8----10-]
[-4---7---9----11-]
[-5---7---10---12-]
[-5---5---10---12-]
[-3-------8----10-]


          G          D           C          D
But if your leaving now would ya mind if I came along too

[-----3---------5----------8-----------10-------]
[-------3---------7----------8------------10----]
[---------4---------7----9------9---11-------11-]
[---5---------7-------10---------12-------------]
[-----------5-----------------------------------]
[-3---------------------------------------------]


      G            D            C           D
Cause everybody's drunk they're passed out on the ground

[-3---5---8----10-]
[-3---7---8----10-]
[-4---7---9----11-]
[-5---7---10---12-]
[-5---5---10---12-]
[-3-------8----10-]


G            D       C        D
We could go out to where nobody's around

[-----3---------5----------8-----------10-------]
[-------3---------7----------8------------10----]
[---------4---------7----9------9---11-------11-]
[---5---------7-------10---------12-------------]
[-----------5-----------------------------------]
[-3---------------------------------------------]


     G          D           C        D
Your heart and mine should really spend some time together

G        D        C         D


       G         D                  C            D
The blood'll be flowin through our veins like a stream in stormy weather

G        D        C         D

     G          D           C        D
Your heart and mine should really spend some time together

      G         D                  C            D
The blood'll be flowin through our veins like a stream in stormy weather

     Em         D                  C            D
The blood'll be flowin through our veins 

     Em         D                  C            D
The blood'll be flowin through our veins 

      Em         D                  C            D
The blood'll be flowin through our veins like a stream in stormy weather

G        D        C         D

               G        D       C        D          G    D    C    D
We should be together                 together for ever

The rest of the song is just G     D     C     D

if you have any questions throw me an email
            
Submit corrections


        Your Heart lessons Hard to play? Try these video lessons and learn fast Your Heart lessons
        
↑ Back to top | Tablatures and chords for acoustic guitar and electric guitar, ukulele, drums are parodies/interpretations of the original songs. You may use it for private study, scholarship, research or language learning purposes only