» » »

Matt Mays - How Do You Feel Miss Muse Tabs

Artists:  A B C D E F G H I J K L M N O P Q R S T U V W X Y Z # 

How Do You Feel Miss Muse Tabs

(ver. 1) Click to play this song!
Matt Mays
 Rating:
4/5 (4 votes)

 How Do You Feel Miss Muse lessons Tabs too difficult? Try these video lessons and learn fast
 
                Well this song hasn't actually been released yet. I tabbed it from the 
Tuning: standard

Chords Used

  A    F#   E    D    C#   G#
[---][-2-][-0-][-3-][-4-][---]
[-2-][-2-][-0-][-2-][-5-][---]
[-2-][-2-][-1-][-3-][-6-][---]
[-2-][-4-][-2-][-0-][-6-][-6-]
[-0-][-4-][-2-][---][-4-][-6-]
[---][-2-][-0-][---][---][-4-]

There are alot of hammer ons and pull offs to be aware of
that are important because they really are the beauty of the song
I'll try to tab them as best I can but listen to the song to
check it for yourself

Since the song hasn't been released..there are some lyrics that 
are probably wrong
He plays this little thing before he starts the song


        F#        D A D   F# A F# E
[-----------2-2-2---------2---2-0-]
[-----------2-2-2-3-2-3-2-2-2-2-0-]
[-------2---2-2-2-2-2-2-2-2-2-2-1-]
[-2-2h4---4-4-4-4-0-2-0-2-4-2-4-2-]
[-----------4-4-4---0---0-4-0-4-2-]
[-----------2-2-2---------2---2-0-]

        
      F#          A  Asus   F#    A  Asus   F#    A Asus   E
[-------2-2-2-2-2-5-5-5-5-2-2-2-2-5-5-5-5-2-2-2-2-5-5-5-5-0-0-0-0--0-]
[-------2-2-2-2-2-5-5-5-5-2-2-2-2-5-5-5-5-2-2-2-2-5-5-5-5-0-0-0-0--0-]
[-----4-2-2-2-2-2-6-6-7-6-2-2-2-2-6-6-7-6-2-2-2-2-6-6-7-6-1-1-1-2p11-]
[-2h4---4-4-4-4-4-7-7-7-7-4-4-4-4-7-7-7-7-4-4-4-4-7-7-7-7-2-2-2-2--2-]
[-------4-4-4-4-4-7-7-7-7-4-4-4-4-7-7-7-7-4-4-4-4-7-7-7-7-2-2-2-2--2-]
[-------2-2-2-2-2-5-5-5-5-2-2-2-2-5-5-5-5-2-2-2-2-5-5-5-5-0-0-0-0--0-]

On a night highway rise     billion miles as the owl flies

       F#         A  Asus  A        F#         A  Asus  A
[----------------------------------------------------------]
[-2-2-2-2-2-2-2-2-2-2-3p2-2-2--2-2-2-2-2-2-2-2-2-2-3p2-2-2-]
[-2-2-2-2-2-2-2-2-2-2-2---2-2--2-2-2-2-2-2-2-2-2-2-2---2-2-]
[-4-4-4-4-4-4-4-2-2-2-2---2-2--4-4-4-4-4-4-4-2-2-2-2---2-2-]
[-4-4-4-4-4-4-4-0-0-0-0---0-0--4-4-4-4-4-4-4-0-0-0-0---0-0-]
[-2-2-2-2-2-2-2----------------2-2-2-2-2-2-2---------------]

Cold Rivers and Golden Skies     in our eyes

        F#      A    Asus   A      E     Esus    E
[------------------------------0-0-0-0-0-0---0-0-0-0-0-]
[-2-2-2-2-2-2-2-2-2-2-3p2-2-2--0-0-0-0-0-0---0-0-0-0-0-]
[-2-2-2-2-2-2-2-2-2-2-2---2-2--1-1-1-1-1-2p1-1-1-1-1-1-]
[-4-4-4-4-4-4-4-2-2-2-2---2-2--2-2-2-2-2-2---2-2-2-2-2-]
[-4-4-4-4-4-4-4-0-0-0-0---0-0--2-2-2-2-2-2---2-2-2-2-2-]
[-2-2-2-2-2-2-2----------------0-0-0-0-0-0---0-0-0-0-0-]

And my voice is gone again  Staying up all night with my friends

       F#     G#  A  Asus  A         F#        A  Asus  A
[----------------------------------------------------------]
[-2-2-2-2-2-2---2-2-2-3p2-2-2--2-2-2-2-2-2-2-2-2-2-3p2-2-2-]
[-2-2-2-2-2-2---2-2-2-2---2-2--2-2-2-2-2-2-2-2-2-2-2---2-2-]
[-4-4-4-4-4-4-6-2-2-2-2---2-2--4-4-4-4-4-4-4-2-2-2-2---2-2-]
[-4-4-4-4-4-4-6-0-0-0-0---0-0--4-4-4-4-4-4-4-0-0-0-0---0-0-]
[-2-2-2-2-2-2-4----------------2-2-2-2-2-2-2---------------]


Well I live my life like a movie    till the credits role

        F#  G#   A    Asus   A      E  Esus      E
[-----------------------------0-0-0-0-0-0---0-0-0-0-0-]
[-2-2-2-2-2----2-2-2-3p2-2-2--0-0-0-0-0-0---0-0-0-0-0-]
[-2-2-2-2-2----2-2-2-2---2-2--1-1-1-1-1-2p1-1-1-1-1-1-]
[-4-4-4-4-4-6--2-2-2-2---2-2--2-2-2-2-2-2---2-2-2-2-2-]
[-4-4-4-4-4-6--0-0-0-0---0-0--2-2-2-2-2-2---2-2-2-2-2-]
[-2-2-2-2-2-4-----------------0-0-0-0-0-0---0-0-0-0-0-]



And theres no halo over my head there's no thoughts any more

   D  Dsus D     E  Esus  E    A  Asus A    C#    C#
[-2-2-2-3-2-2-0-0-0-0---0-0---------------4-4-4-4-4-4-]
[-3-3-3-3-3-3-0-0-0-0---0-0-2-2-2-3p2-2-2-5-5-5-4-5-5-]
[-2-2-2-2-2-2-1-1-1-2p1-1-1-2-2-2-2---2-2-6-6-6-6-6-6-]
[-0-0-0-0-0-0-2-2-2-2---2-2-2-2-2-2---2-2-6-6-6-6-6-6-]
[-------------2-2-2-2---2-2-0-0-0-0---0-0-4-4-4-4-4-4-]
[-------------0-0-0-0---0-0---------------------------]

Still whats real and what's not   in my head

   D  Dsus D     E  Esus  E    A  Asus A     Asus   A
[-2-2-2-3-2-2-0-0-0-0---0-0-----------------------------]
[-3-3-3-3-3-3-0-0-0-0---0-0-2-2-2-3p2-2-2-2-2-2h3h2-2-2-]
[-2-2-2-2-2-2-1-1-1-2p1-1-1-2-2-2-2---2-2-2-2-2-----2-2-]
[-0-0-0-0-0-0-2-2-2-2---2-2-2-2-2-2---2-2-2-2-2-----2-2-]
[-------------2-2-2-2---2-2-0-0-0-0---0-0-0-0-0-----0-0-]
[-------------0-0-0-0---0-0-----------------------------]


      F#     A  Asus   F#    A  Asus   F#    A Asus   E
[-2-2-2-2-2-5-5-5-5-2-2-2-2-5-5-5-5-2-2-2-2-5-5-5-5---------------]
[-2-2-2-2-2-5-5-5-5-2-2-2-2-5-5-5-5-2-2-2-2-5-5-5-5---------------]
[-2-2-2-2-2-6-6-7-6-2-2-2-2-6-6-7-6-2-2-2-2-6-6-7-6-9-9-9-9-9-9-9-]
[-4-4-4-4-4-7-7-7-7-4-4-4-4-7-7-7-7-4-4-4-4-7-7-7-7-9-9-9-9-9-9-9-]
[-4-4-4-4-4-7-7-7-7-4-4-4-4-7-7-7-7-4-4-4-4-7-7-7-7-7-7-7-7-7-7-7-]
[-2-2-2-2-2-5-5-5-5-2-2-2-2-5-5-5-5-2-2-2-2-5-5-5-5-0-0-0-0-0-0-0-]

And it's a tangled web I weave,   then wake up and leave

       F#     G#  A  Asus  A        F#         A  Asus  A
[----------------------------------------------------------]
[-2-2-2-2-2-2---2-2-2-3p2-2-2--2-2-2-2-2-2-2-2-2-2-3p2-2-2-]
[-2-2-2-2-2-2---2-2-2-2---2-2--2-2-2-2-2-2-2-2-2-2-2---2-2-]
[-4-4-4-4-4-4-6-2-2-2-2---2-2--4-4-4-4-4-4-4-2-2-2-2---2-2-]
[-4-4-4-4-4-4-6-0-0-0-0---0-0--4-4-4-4-4-4-4-0-0-0-0---0-0-]
[-2-2-2-2-2-2-4----------------2-2-2-2-2-2-2---------------]

A high definition dream      is all that you are

        F#  G#   A    Asus   A      E  Esus      E
[-----------------------------0-0-0-0-0-0---0-0-0-0-0-]
[-2-2-2-2-2----2-2-2-3p2-2-2--0-0-0-0-0-0---0-0-0-0-0-]
[-2-2-2-2-2----2-2-2-2---2-2--1-1-1-1-1-2p1-1-1-1-1-1-]
[-4-4-4-4-4-6--2-2-2-2---2-2--2-2-2-2-2-2---2-2-2-2-2-]
[-4-4-4-4-4-6--0-0-0-0---0-0--2-2-2-2-2-2---2-2-2-2-2-]
[-2-2-2-2-2-4-----------------0-0-0-0-0-0---0-0-0-0-0-]

So how do you feel Miss Muse  When the sun in her eyes is all used

       F#     G#  A  Asus  A         F#        A  Asus  A
[----------------------------------------------------------]
[-2-2-2-2-2-2---2-2-2-3p2-2-2--2-2-2-2-2-2-2-2-2-2-3p2-2-2-]
[-2-2-2-2-2-2---2-2-2-2---2-2--2-2-2-2-2-2-2-2-2-2-2---2-2-]
[-4-4-4-4-4-4-6-2-2-2-2---2-2--4-4-4-4-4-4-4-2-2-2-2---2-2-]
[-4-4-4-4-4-4-6-0-0-0-0---0-0--4-4-4-4-4-4-4-0-0-0-0---0-0-]
[-2-2-2-2-2-2-4----------------2-2-2-2-2-2-2---------------]

Do you know that your always      on my mind

        F#  G#   A    Asus   A      E  Esus      E
[-----------------------------0-0-0-0-0-0---0-0-0-0-0-]
[-2-2-2-2-2----2-2-2-3p2-2-2--0-0-0-0-0-0---0-0-0-0-0-]
[-2-2-2-2-2----2-2-2-2---2-2--1-1-1-1-1-2p1-1-1-1-1-1-]
[-4-4-4-4-4-6--2-2-2-2---2-2--2-2-2-2-2-2---2-2-2-2-2-]
[-4-4-4-4-4-6--0-0-0-0---0-0--2-2-2-2-2-2---2-2-2-2-2-]
[-2-2-2-2-2-4-----------------0-0-0-0-0-0---0-0-0-0-0-]

And when the first snow flake falls 
And Rattles all the pictures on the walls

       F#     G#  A  Asus  A         F#        A  Asus  A
[----------------------------------------------------------]
[-2-2-2-2-2-2---2-2-2-3p2-2-2--2-2-2-2-2-2-2-2-2-2-3p2-2-2-]
[-2-2-2-2-2-2---2-2-2-2---2-2--2-2-2-2-2-2-2-2-2-2-2---2-2-]
[-4-4-4-4-4-4-6-2-2-2-2---2-2--4-4-4-4-4-4-4-2-2-2-2---2-2-]
[-4-4-4-4-4-4-6-0-0-0-0---0-0--4-4-4-4-4-4-4-0-0-0-0---0-0-]
[-2-2-2-2-2-2-4----------------2-2-2-2-2-2-2---------------]

Will your snowy gusty glare       be frozen in time

        F#  G#   A    Asus   A      E  Esus      E
[-----------------------------0-0-0-0-0-0---0-0-0-0-0-]
[-2-2-2-2-2----2-2-2-3p2-2-2--0-0-0-0-0-0---0-0-0-0-0-]
[-2-2-2-2-2----2-2-2-2---2-2--1-1-1-1-1-2p1-1-1-1-1-1-]
[-4-4-4-4-4-6--2-2-2-2---2-2--2-2-2-2-2-2---2-2-2-2-2-]
[-4-4-4-4-4-6--0-0-0-0---0-0--2-2-2-2-2-2---2-2-2-2-2-]
[-2-2-2-2-2-4-----------------0-0-0-0-0-0---0-0-0-0-0-]

Forever and ever with no change to see

   D  Dsus D     E  Esus  E    A  Asus A    C#    C#
[-2-2-2-3-2-2-0-0-0-0---0-0---------------4-4-4-4-4-4-]
[-3-3-3-3-3-3-0-0-0-0---0-0-2-2-2-3p2-2-2-5-5-5-4-5-5-]
[-2-2-2-2-2-2-1-1-1-2p1-1-1-2-2-2-2---2-2-6-6-6-6-6-6-]
[-0-0-0-0-0-0-2-2-2-2---2-2-2-2-2-2---2-2-6-6-6-6-6-6-]
[-------------2-2-2-2---2-2-0-0-0-0---0-0-4-4-4-4-4-4-]
[-------------0-0-0-0---0-0---------------------------]

Something real for me to taste

   D  Dsus D     E  Esus  E    A  Asus A     Asus   A
[-2-2-2-3-2-2-0-0-0-0---0-0-----------------------------]
[-3-3-3-3-3-3-0-0-0-0---0-0-2-2-2-3p2-2-2-2-2-2h3h2-2-2-]
[-2-2-2-2-2-2-1-1-1-2p1-1-1-2-2-2-2---2-2-2-2-2-----2-2-]
[-0-0-0-0-0-0-2-2-2-2---2-2-2-2-2-2---2-2-2-2-2-----2-2-]
[-------------2-2-2-2---2-2-0-0-0-0---0-0-0-0-0-----0-0-]
[-------------0-0-0-0---0-0-----------------------------]

Cause there's no halo over my head and theres no thoughts anymore

   D  Dsus D     E  Esus  E    A  Asus A    C#    C#
[-2-2-2-3-2-2-0-0-0-0---0-0---------------4-4-4-4-4-4-]
[-3-3-3-3-3-3-0-0-0-0---0-0-2-2-2-3p2-2-2-5-5-5-4-5-5-]
[-2-2-2-2-2-2-1-1-1-2p1-1-1-2-2-2-2---2-2-6-6-6-6-6-6-]
[-0-0-0-0-0-0-2-2-2-2---2-2-2-2-2-2---2-2-6-6-6-6-6-6-]
[-------------2-2-2-2---2-2-0-0-0-0---0-0-4-4-4-4-4-4-]
[-------------0-0-0-0---0-0---------------------------]

As to whats real and whats not in my head

   D  Dsus D     E  Esus  E    A  Asus A     Asus   A
[-2-2-2-3-2-2-0-0-0-0---0-0-----------------------------]
[-3-3-3-3-3-3-0-0-0-0---0-0-2-2-2-3p2-2-2-2-2-2h3h2-2-2-]
[-2-2-2-2-2-2-1-1-1-2p1-1-1-2-2-2-2---2-2-2-2-2-----2-2-]
[-0-0-0-0-0-0-2-2-2-2---2-2-2-2-2-2---2-2-2-2-2-----2-2-]
[-------------2-2-2-2---2-2-0-0-0-0---0-0-0-0-0-----0-0-]
[-------------0-0-0-0---0-0-----------------------------]
 
And what's not in my head
    A       S        A  Asus A Asus
[-------0-0-0-0-0-----------------]
[-2-2-2-1-1-1-1-1-2-2-2-2h3h2h3h2-]
[-2-2-2-0-0-0-0-0-2-2-2-2---------]
[-2-2-2-2-2-2-2-2-2-2-2-2---------]
[-0-0-0-3-3-3-3-3-0-0-0-0---------]
[-------0-0-0-0-0-----------------]

So ya that's it..I expect this song to be out with their next album
which hopefully comes out really soon. Im not sure if he uses the G#
as much as I have here but it sounds pretty damn close. check out the
            
Submit corrections


        How Do You Feel Miss Muse lessons Hard to play? Try these video lessons and learn fast How Do You Feel Miss Muse lessons
        
↑ Back to top | Tablatures and chords for acoustic guitar and electric guitar, ukulele, drums are parodies/interpretations of the original songs. You may use it for private study, scholarship, research or language learning purposes only