Home » M » Matt Mays »

Matt Mays - Heroine Tabs

Artists:  A B C D E F G H I J K L M N O P Q R S T U V W X Y Z # 

Heroine Tabs

(ver. 1) Click to play this song!
Matt Mays
 Rating:
4.2/5 (5 votes)
                This song's a sweet little acoustic ditty from When The Angels
Make Contact.
IMPORTANT: This song is tuned down half a step plus the E low
is tuned to C# to give the dropped D effect.
e tunes to d#
b tunes to a# If your tuner sucks like mine does and cant deal
g tunes to f# with half steps very well, throw a capo on the
d tunes to c# first fret and tune e-a strings to standard. then
a tunes to g# throw the capo on the third fret and tune the E low
E tunes to c# to standard

Chords Used

 G   D  Em/G A
-3- -3- -3- ---|
-3- -2- -3- -2-|
-0- -3- -0- -2-|
-0- -0- -2- -2-|
-2- -0- -2- -0-|
--- -0- --- ---|

One thing to note is that he doesn't always hit every string for
each chord..for example he doesn't normally hit the e high when he's
playing the G...I'll tab it out to what seems right to me, but you
should be able to pick up the strumming patterns

[--------------------3-3--------------------3-3---2--2-2---------3-3-3-|
[-----3-3-3-3-3--3-3-3-3-----3-3-3-3-3--3-3-3-3---3--3-3-3-3-3---2-2-2-|
[-----0-0-0-0-0--0-0-0-0-----0-0-0-0-0--0-0-0-0---2--2-2-2-2-0h2-3-3-3-|
[-----0-0-0-0-0--0-0-0-0-----0-0-0-0-0--0-0-0-0-0-0--0-0-0-0-0---0-0-0-|
[-0h2-2-2-2-2-2--2-2-2-2-0h2-2-2-2-2-2--2-2-2-2-0----------------------|
[-----------------------------------------------0----------------------|

[--------------------3-3--------------------3-3---2--2-2---------3-3-3-|
[-----3-3-3-3-3--3-3-3-3-----3-3-3-3-3--3-3-3-3---3--3-3-3-3-3---2-2-2-|
[-----0-0-0-0-0--0-0-0-0-----0-0-0-0-0--0-0-0-0---2--2-2-2-2-0h2-3-3-3-|
[-----0-0-0-0-0--0-0-0-0-----0-0-0-0-0--0-0-0-0-0-0--0-0-0-0-0---0-0-0-|
[-0h2-2-2-2-2-2--2-2-2-2-0h2-2-2-2-2-2--2-2-2-2-0----------------------|
[-----------------------------------------------0----------------------|

You are the Heroine    You'll save the day
[--------------------3-3--------------------3-3---2--2-2---------3-3-3-|
[-----3-3-3-3-3--3-3-3-3-----3-3-3-3-3--3-3-3-3---3--3-3-3-3-3---2-2-2-|
[-----0-0-0-0-0--0-0-0-0-----0-0-0-0-0--0-0-0-0---2--2-2-2-2-0h2-3-3-3-|
[-----0-0-0-0-0--0-0-0-0-----0-0-0-0-0--0-0-0-0-0-0--0-0-0-0-0---0-0-0-|
[-0h2-2-2-2-2-2--2-2-2-2-0h2-2-2-2-2-2--2-2-2-2-0----------------------|
[-----------------------------------------------0----------------------|

You are the Heroine    You'll save the day
[--------------------3-3--------------------3-3---2--2-2---------3-3-3-|
[-----3-3-3-3-3--3-3-3-3-----3-3-3-3-3--3-3-3-3---3--3-3-3-3-3---2-2-2-|
[-----0-0-0-0-0--0-0-0-0-----0-0-0-0-0--0-0-0-0---2--2-2-2-2-0h2-3-3-3-|
[-----0-0-0-0-0--0-0-0-0-----0-0-0-0-0--0-0-0-0-0-0--0-0-0-0-0---0-0-0-|
[-0h2-2-2-2-2-2--2-2-2-2-0h2-2-2-2-2-2--2-2-2-2-0----------------------|
[-----------------------------------------------0----------------------|

[-3-3-3-3-3--3-3-3---------3-3-3---3-3---3-3---3-3---3-3-3-]
[-3-3-3-3-3--3-3-3-3-3-3-3-3-3-3---2-2---2-2---2-2---2-2-2-]
[-0-0-0-0-0--0-0-0-0-0-0-0-0-0-0---3-3---3-3-3-3-3-3-3-3-3-]
[-2-2-2-2-2--2-2-2-0-0-0-0-0-0-0-0-0-0-0-0-0-0-0-0-0-0-0-0-]
[-2-2-2-2-2--2-2-2-2-2-2-2-2-2-2-0-----0-----0-----0-0-0-0-]
[--------------------------------0-----0-----0-----0-0-0-0-]

And the trouble that Im in    You are the Heroine
[-------3-3-3-3---3-3-3-----------------3-3-3-3---3-3-3---3-3---3-3-3-]
[-3-3-3-3-3-3-3---3-3-3-2-2-2---2-2-----3-3-3-3---2-2-2---2-2---2-2-2-]
[-0-0-0-0-0-0-0---0-0-0-2-2-2---2-2-----0-0-0-0---3-3-3-3-3-3---3-3-3-]
[-0-0-0-0-0-0-0---0-0-0-2-2-2---2-2-----0-0-0-0-0-0-0-0-0-0-0-0-0-0-0-]
[-2-2-2-2-2-2-2---2-2-2-0-0-0---0-0-0h2-2-2-2-2-0-------0-----0-------]
[-----------------------------------------------0-------0-----0-------]

[--------------------3-3----------------------3-3---2--2-2---------3-3-3-|
[-----3-3-3-3-3--3-3-3-3-------3-3-3-3-3--3-3-3-3---3--3-3-3-3-3---2-2-2-|
[-----0-0-0-0-0--0-0-0-0-------0-0-0-0-0--0-0-0-0---2--2-2-2-2-0h2-3-3-3-|
[-----0-0-0-0-0--0-0-0-0-------0-0-0-0-0--0-0-0-0-0-0--0-0-0-0-0---0-0-0-|
[-0h2-2-2-2-2-2--2-2-2-2-0-0h2-2-2-2-2-2--2-2-2-2-0----------------------|
[-------------------------------------------------0----------------------|

You are the Medicine      Your a midnight girl

[--------------------3-3----------------------3-3---2--2-2---------3-3-3-|
[-----3-3-3-3-3--3-3-3-3-------3-3-3-3-3--3-3-3-3---3--3-3-3-3-3---2-2-2-|
[-----0-0-0-0-0--0-0-0-0-------0-0-0-0-0--0-0-0-0---2--2-2-2-2-0h2-3-3-3-|
[-----0-0-0-0-0--0-0-0-0-------0-0-0-0-0--0-0-0-0-0-0--0-0-0-0-0---0-0-0-|
[-0h2-2-2-2-2-2--2-2-2-2-0-0h2-2-2-2-2-2--2-2-2-2-0----------------------|
[-------------------------------------------------0----------------------|

You are the Medicine      Your a midnight girl

[--------------------3-3----------------------3-3---2--2-2---------3-3-3-|
[-----3-3-3-3-3--3-3-3-3-------3-3-3-3-3--3-3-3-3---3--3-3-3-3-3---2-2-2-|
[-----0-0-0-0-0--0-0-0-0-------0-0-0-0-0--0-0-0-0---2--2-2-2-2-0h2-3-3-3-|
[-----0-0-0-0-0--0-0-0-0-------0-0-0-0-0--0-0-0-0-0-0--0-0-0-0-0---0-0-0-|
[-0h2-2-2-2-2-2--2-2-2-2-0-0h2-2-2-2-2-2--2-2-2-2-0----------------------|
[-------------------------------------------------0----------------------|

With wide lights and black skies and a tear in your eye

[-3-3-3-3-3--3-3-3---------3-3-3---3-3---3-3---3-3---3-3-3-]
[-3-3-3-3-3--3-3-3-3-3-3-3-3-3-3---2-2---2-2---2-2---2-2-2-]
[-0-0-0-0-0--0-0-0-0-0-0-0-0-0-0---3-3---3-3-3-3-3-3-3-3-3-]
[-2-2-2-2-2--2-2-2-0-0-0-0-0-0-0-0-0-0-0-0-0-0-0-0-0-0-0-0-]
[-2-2-2-2-2--2-2-2-2-2-2-2-2-2-2-0-----0-----0-----0-0-0-0-]
[--------------------------------0-----0-----0-----0-0-0-0-]

And the trouble that Im in    You are the Heroine
[-------3-3-3-3---3-3-3-----------------3-3-3-3---3-3-3---3-3---3-3-3-]
[-3-3-3-3-3-3-3---3-3-3-2-2-2---2-2-----3-3-3-3---2-2-2---2-2---2-2-2-]
[-0-0-0-0-0-0-0---0-0-0-2-2-2---2-2-----0-0-0-0---3-3-3-3-3-3---3-3-3-]
[-0-0-0-0-0-0-0---0-0-0-2-2-2---2-2-----0-0-0-0-0-0-0-0-0-0-0-0-0-0-0-]
[-2-2-2-2-2-2-2---2-2-2-0-0-0---0-0-0h2-2-2-2-2-0-------0-----0-------]
[-----------------------------------------------0-------0-----0-------]


You are the Heroine                yeah
[--------------------3-3--------------------3-3---2--2-2---------3-3-3-|
[-----3-3-3-3-3--3-3-3-3-----3-3-3-3-3--3-3-3-3---3--3-3-3-3-3---2-2-2-|
[-----0-0-0-0-0--0-0-0-0-----0-0-0-0-0--0-0-0-0---2--2-2-2-2-0h2-3-3-3-|
[-----0-0-0-0-0--0-0-0-0-----0-0-0-0-0--0-0-0-0-0-0--0-0-0-0-0---0-0-0-|
[-0h2-2-2-2-2-2--2-2-2-2-0h2-2-2-2-2-2--2-2-2-2-0----------------------|
[-----------------------------------------------0----------------------|

You are the Heroine                yeah
[--------------------3-3--------------------3-3---2--2-2---------3-3-3-|
[-----3-3-3-3-3--3-3-3-3-----3-3-3-3-3--3-3-3-3---3--3-3-3-3-3---2-2-2-|
[-----0-0-0-0-0--0-0-0-0-----0-0-0-0-0--0-0-0-0---2--2-2-2-2-0h2-3-3-3-|
[-----0-0-0-0-0--0-0-0-0-----0-0-0-0-0--0-0-0-0-0-0--0-0-0-0-0---0-0-0-|
[-0h2-2-2-2-2-2--2-2-2-2-0h2-2-2-2-2-2--2-2-2-2-0----------------------|
[-----------------------------------------------0----------------------|

You are the Heroine
[--------------------3-3--------------------3-3---2-2-]
[-----3-3-3-3-3--3-3-3-3-----3-3-3-3-3--3-3-3-3---3-3-]
[-----0-0-0-0-0--0-0-0-0-----0-0-0-0-0--0-0-0-0---2-2-]
[-----0-0-0-0-0--0-0-0-0-----0-0-0-0-0--0-0-0-0-0-0-0-]
[-0h2-2-2-2-2-2--2-2-2-2-0h2-2-2-2-2-2--2-2-2-2-0-----]
[-----------------------------------------------0-----]

So yeah that's the jist of it...there are a few other slight variations
of hammer on's he does with the different verses...play around with them
and see what you like best
            
Submit corrections

↑ Back to top | Tablatures and chords for acoustic guitar and electric guitar, ukulele, drums are parodies/interpretations of the original songs. You may use it for private study, scholarship, research or language learning purposes only