» » »

Matt Maher - Hold Us Together Tabs

Artists:  A B C D E F G H I J K L M N O P Q R S T U V W X Y Z # 

Hold Us Together Tabs

(ver. 1) Click to play this song!
Matt Maher
 Rating:
4.3/5 (16 votes)

 Hold Us Together lessons Tabs too difficult? Try these video lessons and learn fast
 
                [Verse]

(begin at 2nd chord progession on acoustic, before vocals start)

e|---------|---------|---------|---------| 
B|---------|---------|---------|---------|
G|---------|---------|---------|---------|
D|---------|---------|---------|---------|3x
A|-3-3-3-3-|---------|---------|---------|
E|---------|-3-3-3-3-|-5-5-5-5-|-1-1-1-1-|

"won't buy you a home..."
e|---------|---------|---------|----------| 
B|---------|---------|---------|----------|
G|-----5---|---------|---------|----------|
D|---5---5-|-----2---|-----7---|-----3----|
A|-3-------|---2---2-|---7---7-|---3---3--|
E|---------|-0-------|-5-------|-1--------|

"won't fix your life..."
e|--------------------------------------------------------| 
B|--------------------------------------------------------|
G|--------------------------------------------------------|
D|-14b17---12b14-12b14-12-----14b17-----------------------|
A|---------------------------------1412--14b15-14b15-14---|
E|------------------------------------ 15--------------15-|


[Pre-chorus]

"but it's all you need..."
e|--------------------------------|
B|--------------------------------|
G|--------------------------------|
D|-5-------5-------5-5-5-5-5-5-5-5|
A|-5-------5-------5-5-5-5-5-5-5-5|
E|-3-3-3-3-3-3-3-3-3-3-3-5-5-5-5-5|


[Chorus]

"and love will hold us together..."
e|---------|---------|---------|----------| 
B|---------|---------|---------|----------|
G|-----5---|---------|---------|----------|
D|---5---5-|-----5---|-----7---|-----3----| 3x
A|-3-------|---5---5-|---7---7-|---3---3--|
E|---------|-3-------|-5-------|-1--------|

"so the whole world will know..."
e|---------|---------|---------|----------| 
B|---------|---------|---------|----------|
G|-----5---|---------|---------|----------|
D|---5---5-|-----5---|--7--7---|-5--------| 3x
A|-3-------|---5---5-|--7--7---|-5--------|
E|---------|-3-------|--5--5---|-3--------|


[Verse 2]

"He's waiting for you..."
e|----------------|  (same chords, an octave up)
B|--8-------------| (play chords on beat 3, last one on 2, 3, 4)
G|--5--7--9--555--|
D|-----5--7--333--| 3x
A|----------------|
E|----------------|

"in your moment of truth..."
e|----------------|
B|--8-------------| 
G|--5--4--9--555--|
D|-----2--7--333--|
A|----------------|
E|----------------|


[Prechorus]

"but it's all you need..."
e|--------------------------------|
B|--------------------------------|
G|--------------------------------|
D|-5-------5-------5-5-5-5-5-5-5-5|
A|-5-------5-------5-5-5-5-5-5-5-5|
E|-3-3-3-3-3-3-3-3-3-3-3-5-5-5-5-5|


[Chorus]

"and love will hold us together..."
e|---------|---------|---------|----------| 
B|---------|---------|---------|----------|
G|-----5---|---------|---------|----------|
D|---5---5-|-----5---|-----7---|-----3----| 3x
A|-3-------|---5---5-|---7---7-|---3---3--|
E|---------|-3-------|-5-------|-1--------|

"so the whole world will know..."
e|---------|---------|---------|----------| 
B|---------|---------|---------|----------|
G|-----5---|---------|---------|----------|
D|---5---5-|-----5---|--7--7---|-5--------| 3x
A|-3-------|---5---5-|--7--7---|-5--------|
E|---------|-3-------|--5--5---|-3--------|


[Bridge]

e|---------------| (play chords on beat 3, last one on 2, 3, 4)
B|---------------| 
G|-5-------------|
D|-5--5--7--333--| 2x
A|-3--5--7--333--|
E|----3--5--111--|

e|---------------|
B|---------------|
G|-5-------------|
D|-5--2--7--333--|
A|-3--2--7--333--|
E|----0--5--111--|


[Guitar solo]

e|------------------------------------------------|
B|------------------------------------------------|
G|---------------------------------912------------|
D|-1010h1210-12b13-12b13--12b131012---12101210----|
A|--------------------------------------------12--|
E|------------------------------------------------|

e|-----------------------171517----------|
B|---------------------15------171715----|
G|--------12--12/141717--------------17--|
D|-10/1214-------------------------------|
A|---------------------------------------|
E|---------------------------------------|

e|------------------------------------------| 
B|------------------------------------------|
G|-1414--------13---------------------------|
D|-----1412--14--1412--14------1212b13------|
A|---------15--------15----1215-------1515--|
E|------------------------------------------|


e|--------------------15--------------|
B|---------------15b16--15b1615-1313--|
G|------12b12-------------------------|
D|-12/14-----14-----------------------|
A|------------------------------------|
E|------------------------------------|


[Chorus]

"and love will hold us together..."
e|---------|---------|---------|----------| 
B|---------|---------|---------|----------|
G|-----5---|---------|---------|----------|
D|---5---5-|-----5---|-----7---|-----3----| 3x
A|-3-------|---5---5-|---7---7-|---3---3--|
E|---------|-3-------|-5-------|-1--------|

"so the whole world will know..."
e|---------|---------|---------|----------| 
B|---------|---------|---------|----------|
G|-----5---|---------|---------|----------|
D|---5---5-|-----5---|--7--7---|-5--------| 3x
A|-3-------|---5---5-|--7--7---|-5--------|
E|---------|-3-------|--5--5---|-3--------|            
Submit corrections


        Hold Us Together lessons Hard to play? Try these video lessons and learn fast Hold Us Together lessons
        
↑ Back to top | Tablatures and chords for acoustic guitar and electric guitar, ukulele, drums are parodies/interpretations of the original songs. You may use it for private study, scholarship, research or language learning purposes only