» » »

Matt Maher - Because He Lives Amen Tabs

Artists:  A B C D E F G H I J K L M N O P Q R S T U V W X Y Z # 

Because He Lives Amen Tabs

(ver. 1) Click to play this song!
Matt Maher
 Rating:
3.2/5 (29 votes)

 Because He Lives Amen  lessons Tabs too difficult? Try these video lessons and learn fast
 
                Tuning:E-A-D-G-B-e
capo 3
e|---------------------------------------------------------------------------|
B|---------------------------------------------------------------------------|
G|---------------------------------------------------------------------0-----|
D|----0-2----2---0---2-----0--2---2---0---2-0---------0---2---2----2-4-0---2-|
A|-2--2-3----3---2---3--2--2--3---3---2---3-2---2--2--2---3---3----3-5-----3-|
E|-3--------------------3-----------------------3--3-------------------------|
   I believe in the Son i believe in the risen one i believe i've overcome by  
e|---------------------------------------------------------------------------|
B|---------------------------------------------------------------------------|
G|------0-0--0---2----2------------------------------------------------------|
D|--4---0-0--0---0----0------------------------------------------------------|
A|--5------------------------------------------------------------------------|
E|---------------------------------------------------------------------------|
   the power of His blood
e|---------------------------------------------------------------------------|
B|----------------------0--0-----0-0-------------------------------------0---|
G|------------0-0--2----------2---------0--0---2----2-----------0-0---2------|
D|-----0-2---4--2--0-------0--0----0----0--0---0----0----0-2---4--2---0------|
A|-----2-3---5-------------------------------------------2-3---5-------------|
E|---------------------------------------------------------------------------|
chorus Amen, amen, i'm alive i'm alive because He lives; amen, amen, let my   
e|---------------------------------------------------------------------------|
B|--0---------0---0--------1-0-------0---0-----------------------------------|
G|-------2------------0----------2-----------2----0--------------------------|
D|--0----0--------0---0----0-0---0---0---0---0----0--------------------------|
A|---------------------------------------------------------------------------|
E|---------------------------------------------------------------------------|
   song join the one that never ends because He lives
e|---------------------------------------------------------------------------|
B|--------------0----0---0--0---0---0--0-------------0----0---0--0---0-------|
G|-------0--0----------------------------2----0--0-----------------------2---|
D|-------0--0---0----0---0--0---0---0--0-0----0--0---0----0---0--0---0---0---|
A|---------------------------------------------------------------------------|
E|---------------------------------------------------------------------------|
bridge: because He lives I can face tomorrow because He lives every fear is 
e|---------------------------------------------------------------------------|
B|------0--0---0----0---0---0---0---0----------------------------------------|
G|--2----------------------------------2--2---0----0-------------------------|
D|--0---0--0---0----0---0---0---0---0--0--0---0----0-------------------------|
A|---------------------------------------------------------------------------|
E|---------------------------------------------------------------------------|
   gone i know He holds my life my future in His hands 
e|---------------------------------------------------------------------------|
B|--------0-1---1-0-0-----0--0------0--0------1---0-------------0--------0---|
G|------2--------------2---------2--------0------------2----------2-0-2------|
D|------0-0-0---0-0-0--0-----0---0-----0--0---0---0----0---0-2--0-0-0-0------|
A|---------------------------------------------------------2-3---------------|
E|---------------------------------------------------------------------------|
chorus 2: amen, amen, i'm alive i'm alive because He lives amen amen let my 
e|---------------------------------------------------------------------------|
B|-0---------0---0--------1-0-------0-0----------------------0--0------------|
G|------2------------0----------2-----------2---0----0--0---------2-0--------|
D|-0----0--------0---0----0-0---0---0-0-----0---0----0--0----0--0-0-0--------|
A|---------------------------------------------------------------------------|
E|---------------------------------------------------------------------------|
            
Submit corrections


        Because He Lives Amen  lessons Hard to play? Try these video lessons and learn fast Because He Lives Amen  lessons
        
↑ Back to top | Tablatures and chords for acoustic guitar and electric guitar, ukulele, drums are parodies/interpretations of the original songs. You may use it for private study, scholarship, research or language learning purposes only