» » »

Matthews Dave Band - Christmas Song Tabs

Artists:  A B C D E F G H I J K L M N O P Q R S T U V W X Y Z # 

Christmas Song Tabs

(ver. 1) Click to play this song!
Matthews Dave Band
 Rating:
4/5 (4 votes)

 Christmas Song lessons Tabs too difficult? Try these video lessons and learn fast
 
                This is a fairly simple song to play.  There are two main parts, the riff and
the chord strumming.  You should be able to get the timing if you listen to
the CD a few times.

This is the main riff which is repeated over and over throughout the song:

E-----------------------------------------------
B-----------------------------------------------
G----7----7----7--------------------------------     
D----5-\--4----0---7----7----7----5-------------
A--------------------5-\--4----0----2-----------
E-----------------------------------------------

There only appears to be two chords in the entire song:  A and D.  Listening
to the CD will help you play the strumming part, because it sounds like there
is no particular rhythm or order in which the chords are played. 

		  A 		    D
E-----------------0-----------------2----------
B-----------------2-----------------3----------
G-----------------2-----------------2----------
D-----------------2-----------------0----------
A-----------------0-----------------0----------
E----------------------------------------------
            
Submit corrections


        Christmas Song lessons Hard to play? Try these video lessons and learn fast Christmas Song lessons
        
↑ Back to top | Tablatures and chords for acoustic guitar and electric guitar, ukulele, drums are parodies/interpretations of the original songs. You may use it for private study, scholarship, research or language learning purposes only