Home » M » Matthew Good »

Matthew Good - Pledge Of Allegiance Tabs

Artists:  A B C D E F G H I J K L M N O P Q R S T U V W X Y Z # 

Pledge Of Allegiance Tabs

(ver. 1) Click to play this song!
Matthew Good
Matthew Good



I tabbed out all the different parts that i could pick out.  There are
in any particular order so they just have to be pieced together.

Standard Tuning


GUITAR 1 (Slightly Distorted Electric)

 Figure 1
|-----------------------------------------------------------------|
|-----------------------------------------------------------------|
|-----------------------------------------------------------------|
|-2-----2-----2---6-----6-----8---4-----4-----4---4-----4-----4---|
|-0-0-0-0-0-0-0-0-4-4-4-4-4-4-6-6-2-2-2-2-2-2-2-2-2-2-2-2-2-2-2-2-|
|-----------------------------------------------------------------|
  PM____________________________________________________________|


 Figure 2
|-----------------------------------------------------------------|
|-----------------------------------------------------2-----2---2-|
|---------------------6-------------------------------------------|
|-2-----2-----2---6-----6-----8---4-----4-----4---4-----4-----4---|
|-0-0-0-0-0-0-0-0-4-4---4-4-4-6-6-2-2-2-2-2-2-2-2-2-2---2-2---2---|
|-----------------------------------------------------------------|
  PM____________________________________________________________|


 Figure 3
|-----------------------------------------------------------------|
|-----------------------------------------------------------------|
|-----------------------------------------------------------------|
|-2-----2-----2---6-----6-----8---4-----4-----4---9---9---9---9---|
|-0-0-0-0-0-0-0-0-4-4-4-4-4-4-6-6-2-2-2-2-2-2-2-2-6-6-6-6-7-7-7-7-|
|-------------------------------------------------7-7-7-7-7-7-7-7-|
  PM____________________________________________________________|



KEYBOARD (arranged for guitar)

 Figure 1
|-----------------------------------------------------------------|
|-----------------------------------------------------------------|
|-----------------------------------------------------------------|
|-----------------------------------------------------------------|
|-7~----------11~-------------6~----------------------------------|
|-----------------9~-------------7~-------------------------------|


 Figure 2
|-----------------------------------------------------------------|
|-----------------------------------------------------------------|
|-----------------------------------------------------------------|
|-----------------------------------------------------------------|
|-7~----------11~-------------6~----------------------------------|
|-----------------9~-------------7~-------------2~--------4~------|



Church Bells (arranged for guitar)
|-----------------------------------------------------------------|
|-7---7---7---7-9-7---7---7---7p5-5---5---5---5---5---5---5---5h7-|
|-----------------------------------------------------------------|
|-----------------------------------------------------------------|
|-----------------------------------------------------------------|
|-----------------------------------------------------------------|


Bass Line
|-------------------------------------------------------------------|
|-------------------------------------------------------------------|
|-------------------------------------------------------------------|
|-5-5-5-5-5-5-5-5-9-9-9-9-9-9-11-11-7-7-7-7-7-7-7-7-7-7-7-7-7-7-7-7-|



GUITAR 2 (With delay) Enter at 1:55

 Figure 1 
|-------------------------------7nh-----------------------------7nh|
|-5-4-5-7-5-4-5-0-5-4-5-7-5-4-5---5-4-5-7-5-4-5-0-5-4-5-7-5-4-5----|
|------------------------------------------------------------------|
|------------------------------------------------------------------|
|------------------------------------------------------------------|
|------------------------------------------------------------------|

 At the end of the song Guitar 2 plays variations of Figure 1 as well as

 Figure 2
|-9----9----9-------9----9--|
|---12---12-----------12----|
|---------------------------|
|---------------------------|
|---------------------------|
|---------------------------|
            
Submit corrections

↑ Back to top | Tablatures and chords for acoustic guitar and electric guitar, ukulele, drums are parodies/interpretations of the original songs. You may use it for private study, scholarship, research or language learning purposes only