» » »

Matt Corby - Resolution Tabs

Artists:  A B C D E F G H I J K L M N O P Q R S T U V W X Y Z # 

Resolution Tabs

(ver. 2) Click to play this song!
Matt Corby
 Rating:
4/5 (4 votes)

 Resolution lessons Tabs too difficult? Try these video lessons and learn fast
 
                1st Verse

I'm giving up, it's all eyes on me......

e|-----10-------10-------10-------10-------10-------10-------10--------10----|
B|---------8--------8--------8--------8--------8--------8--------8---------8-|
G|---------------------------------------------------------------------------|
D|---------------------------------------------------------------------------|
A|--10-------10-------10-------10-------10-------10-------10--------10-------|
E|---------------------------------------------------------------------------|

e|-----10-------10-------10-------10--------10-------10-------10-------10------|
B|---------8--------8--------8--------8---------8--------8--------8-------8----|
G|---9--------9--------9--------9----------------------------------------------|
D|---------------------------------------10-------10-------10-------10---------| x2
A|-----------------------------------------------------------------------------|
E|-----------------------------------------------------------------------------|



Stood up back, let time get it right......

e|-----12-------12-------12-------12--------12-------12-------12-------12------|
B|--------10-------10-------10-------10--------10-------10-------10-------10---|
G|---11-------11-------11-------11---------------------------------------------|
D|---------------------------------------14-------14-------14-------14---------|
A|-----------------------------------------------------------------------------|
E|-----------------------------------------------------------------------------|

e|----10-------10-------10-------10------|
B|--------8--------8--------8--------8---|
G|---------------------------------------|
D|-10------10-------10-------10----------|
A|---------------------------------------|
E|---------------------------------------|


Until the rubber leaves the road....

e|-----10-------10-------10------10-------10-------10-------10--------10-----|
B|---------8--------8--------8--------8--------8--------8--------8---------8-|
G|---------------------------------------------------------------------------|
D|---------------------------------------------------------------------------|
A|--10-------10-------10-------10-------10-------10-------10--------10-------|
E|---------------------------------------------------------------------------|


Chorus

So don't you worry.....

e|----------------------------------------------------------------------------|
B|-----5-------5-------5-------5-------5-------5-------5-------5--------------|
G|-------0-------0-------0-------0-------0-------0-------0-------0------------|
D|----------------------------------------------------------------------------|
A|--3-------3-------3-------3-------3-------3-------3-------3-----------------|
E|----------------------------------------------------------------------------|

You will be my resolution.....

e|----------------------------------------------------------------------------|
B|-----8-------8-------8-------8-------12------12------12------12-------------|
G|-------0-------0-------0-------0--------0-------0-------0--------0----------|
D|----------------------------------------------------------------------------|
A|--7-------7-------7-------7-------10------10------10-------10---------------|
E|----------------------------------------------------------------------------|



e|----------------------------------------------------------------------------|
B|-----5-------5-------5-------5-------5-------3-------5-------7--------------|
G|-------0-------0-------0-------0-------0-------0-------0-------0------------|
D|----------------------------------------------------------------------------|
A|--3-------3-------3-------3-------3-------2-------3-------5-----------------|
E|----------------------------------------------------------------------------|


No Characters of no illusion....

e|----------------------------------------------------------------------------|
B|-----8-------8-------8-------8-------12------12------12------12-------------|
G|-------0-------0-------0-------0--------0--------0--------0--------0--------|
D|----------------------------------------------------------------------------|
A|--7-------7-------7-------7-------10------10------10------10----------------|
E|----------------------------------------------------------------------------|


2nd Verse

e|-----------------------|
B|----3------3------3----|
G|------0------0------0--|
D|-----------------------|
A|----------------3------|
E|--3------0-------------|

(Repeat the picking pattern and chord progression as in verse one)


Lyrics:

Im giving up
Its all eyes on me
Call it out like a family
Stood up back let time get it right
Until the rubber leaves the road
You said dont I so I made the truth
Seem like a lie to even you
Control your fears slip
That you do not know where you go to

So dont you worry
You will be my resolution
Characters of no illusion
You will be my resolution

One month down and its inside
Oh Im guaranteed to lose my mind
Its dangerous to speak in sign
You might now what 'm trying to hide
So from the cradle to quarter age
Oh I bought the book but didnt flip the page
Oh ready this is near, we steer
As far away from the coming of days

So dont you worry
You will be my resolution
Characters of no illusion
You will be my resolution
Characters of no illusion
You will be my resolution 

Turn around, put it down and see
That this is really the place to be
Im not you, nor you me
But were both moving steady
            
Submit corrections


        Resolution lessons Hard to play? Try these video lessons and learn fast Resolution lessons
        
↑ Back to top | Tablatures and chords for acoustic guitar and electric guitar, ukulele, drums are parodies/interpretations of the original songs. You may use it for private study, scholarship, research or language learning purposes only