» » »

Matt Corby - Made Of Stone Tabs

Artists:  A B C D E F G H I J K L M N O P Q R S T U V W X Y Z # 

Made Of Stone Tabs

(ver. 2) Click to play this song!
Matt Corby
 Rating:
4.3/5 (15 votes)

 Made Of Stone lessons Tabs too difficult? Try these video lessons and learn fast
 
                e|--------0-----|---------0-----|--------0-----|--------0-----|--------0-----|--------0-------|
B|----1-------1-|----1--------1-|----1-------1-|----1-------1-|---1--------1-|----1-------1---|
G|------2---2---|-------2---2---|------4---4---|------4---4---|------0---0---|------0---0-----|
D|--------------|---------------|--------------|--------------|-3------------|--3-------------|
A|--0-----------|--0------------|--2-----------|--2-----------|--------------|----------------|
E|--------------|---------------|--------------|--------------|--------------|----------------|

e|---------0-----|--------0--------|
B|----1--------1-|----1-------1----|
G|-------0---0---|------0---0------|
D|--3------------|--3--------------|
A|---------------|-----------------|
E|---------------|-----------------|


[Intro]

   Am                             Bsus4b9                       C/F
e|--------0-----|---------0-----|--------0-----|--------0-----|--------0-----|--------0-------|
B|----1-------1-|----1--------1-|----1-------1-|----1-------1-|---1--------1-|----1-------1---|
G|------2---2---|-------2---2---|------4---4---|------4---4---|------0---0---|------0---0-----|
D|--------------|---------------|--------------|--------------|-3------------|--3-------------|
A|--0-----------|--0------------|--2-----------|--2-----------|--------------|----------------|
E|--------------|---------------|--------------|--------------|--------------|----------------|
                                                                                                     x2
e|---------0-----|--------0--------|
B|----1--------1-|----1-------1----|
G|-------0---0---|------0---0------|
D|--3------------|--3--------------|
A|---------------|-----------------|
E|---------------|-----------------|


[Verse 1]

   Am                             Bsus4b9                       C/F
e|--------0-----|---------0-----|--------0-----|--------0-----|--------0-----|--------0-------|
B|----1-------1-|----1--------1-|----1-------1-|----1-------1-|---1--------1-|----1-------1---|
G|------2---2---|-------2---2---|------4---4---|------4---4---|------0---0---|------0---0-----|
D|--------------|---------------|--------------|--------------|-3------------|--3-------------|
A|--0-----------|--0------------|--2-----------|--2-----------|--------------|----------------|
E|--------------|---------------|--------------|--------------|--------------|----------------|
                                                                                                     x2
e|---------0-----|--------0--------|
B|----1--------1-|----1-------1----|
G|-------0---0---|------0---0------|
D|--3------------|--3--------------|
A|---------------|-----------------|
E|---------------|-----------------|

Am            Bsus4b9  C/F
See I left my mothers heart
Am            Bsus4b9  C/F
See I left my fathers home


[Pre-Chorus]

Am      Bsus4b9    C   G   F
And I fell into a well of hope


[Chorus]

 G2              F              C        G
I'm carrying my heart but it's made of stone
 G2              F              C        G
I'm carrying my heart but my heart is made of stone


[Verse 2]

   Am                             Bsus4b9                       C/F
e|--------0-----|---------0-----|--------0-----|--------0-----|--------0-----|--------0-------|
B|----1-------1-|----1--------1-|----1-------1-|----1-------1-|---1--------1-|----1-------1---|
G|------2---2---|-------2---2---|------4---4---|------4---4---|------0---0---|------0---0-----|
D|--------------|---------------|--------------|--------------|-3------------|--3-------------|
A|--0-----------|--0------------|--2-----------|--2-----------|--------------|----------------|
E|--------------|---------------|--------------|--------------|--------------|----------------|
                                                                                                     x2
e|---------0-----|--------0--------|
B|----1--------1-|----1-------1----|
G|-------0---0---|------0---0------|
D|--3------------|--3--------------|
A|---------------|-----------------|
E|---------------|-----------------|

Am            Bsus4b9  C/F
See I left my mothers heart
Am            Bsus4b9  C/F
See I left my fathers home


[Pre-Chorus]

Am      Bsus4b9    C   G   F
And I fell into a well of hope


[Chorus]

 G2              F              C        G
I'm carrying my heart but it's made of stone
 G2              F              C        G
I'm carrying my heart but my heart is made of stone
 G2              F              C        G
I'm carrying my heart but it's made of stone
 G2              F              C        G
I'm carrying my heart but my heart is made of stone


[Outro]

G2 - F - C - G 
(to infinity)
 
Oooh ohhwooahh oooooah aoowoahh
ooooohhh wooaahh ooooooohh oooooaahhh            
Submit corrections


        Made Of Stone lessons Hard to play? Try these video lessons and learn fast Made Of Stone lessons
        
↑ Back to top | Tablatures and chords for acoustic guitar and electric guitar, ukulele, drums are parodies/interpretations of the original songs. You may use it for private study, scholarship, research or language learning purposes only