» » »

Matt Corby - Brother Tabs

Artists:  A B C D E F G H I J K L M N O P Q R S T U V W X Y Z # 

Brother Tabs

(ver. 3) Click to play this song!
Matt Corby
 Rating:
3/5 (6 votes)

 Brother lessons Tabs too difficult? Try these video lessons and learn fast
 
                (Intro)

-------------------------------------------------------------------------------
                             BROTHER - Matt Corby
-------------------------------------------------------------------------------



Tuning: Standard (With a Capo on 2nd Fret)

e|----9--12--9----9--12--9----9------------------------------------|
B|-----------------------------------------------------------------|
G|--------------------------------9--11----------------------------|
D|-----------------------------------------------------------------|
A|-----------------------------------------------------------------|
E|-----------------------------------------------------------------|

e|----9--12--9----9--12--9--10--9------12--9-----------------------|
B|----------------------------------12---------12--10--12----------|
G|-----------------------------------------------------------11----|
D|-----------------------------------------------------------------|
A|-----------------------------------------------------------------|
E|-----------------------------------------------------------------|


Lyrics:

Sleep now under my skin
Make sure you'll try to
Conjure the wind
And ease my mind

Ooh ooh ooh...

Somebody call out to your brother
He's calling out your name

Ooh ooh ooh

Hiding under the covers
With no one else to blame

Ooh ooh ooh

You couldn't help out your own neighbour
You couldn't tell it to his face
You were f---ed up by the blame

You cower in the corner
Confide in your father
Let it out & say
Let it pass away

Sleep now under my skin
Make sure you try to
Conjure the wind
And ease my mind

And I said
Ooh ooh ooh...

Somebody call out to your brother
He's calling out your name
Ooh ooh ooh
Hiding under the covers
With no one else to blame

Ooh ooh ooh

You couldn't help out your own neighbour
You couldn't tell it to his face
You were f---ed up by the blame

You cower in the corner
Confide in your father
Let it out and say

You cower in the corner
Confide in your father
Let it break your day
Let it out and say

Wait there
Pull yourself out of this state, dear
Acknowledge you were a fake here

Oh oh oh

Somebody call out to your brother
He's calling out your name

Ooh ooh ooh

Hiding under the covers
With no one else to blame

Ooh ooh ooh

Oh, you couldn't help out your own neighbour
You couldn't tell it to his face
You were f---ed up by the blame
            
Submit corrections


        Brother lessons Hard to play? Try these video lessons and learn fast Brother lessons
        
↑ Back to top | Tablatures and chords for acoustic guitar and electric guitar, ukulele, drums are parodies/interpretations of the original songs. You may use it for private study, scholarship, research or language learning purposes only