Home » M » Mat Kearney »

Mat Kearney - Wait Tabs

Artists:  A B C D E F G H I J K L M N O P Q R S T U V W X Y Z # 

Wait Tabs

(ver. 1) Click to play this song!
Mat Kearney
(Intro)
"Wait"- Mat Kearney
This might not be right, but it is the way that I play it. Really good song, easy to play.

Standard tuning
e|-----------------------------------------------------------|
B|-----------------------------------------------------------|
G|0---0-0--0---0---0--------------0--0-0---0-0---------0-----|
D|--8-----8------8-----8s6-5-6--8---8----8-----8s6-5-8-------|
A|-----------------------------------------------------------|
E|-----------------------------------------------------------|


Or you could play it like this:
e|-----------------------------------------------------------|
B|-----------------------------------------------------------|
G|0---0-0--0---0---0--------------0--0-0---0-0-----------0---|
D|--8-----8------8-----10s8-7-8--8---8----8-----10s8-7-8-----|
A|-----------------------------------------------------------|
E|-----------------------------------------------------------|

Please write whatever you feel about the tab!
            
Submit corrections

↑ Back to top | Tablatures and chords for acoustic guitar and electric guitar, ukulele, drums are parodies/interpretations of the original songs. You may use it for private study, scholarship, research or language learning purposes only