» » »

Matchbox Twenty - Push Bass

Artists:  A B C D E F G H I J K L M N O P Q R S T U V W X Y Z # 

Push Bass

(ver. 2) Click to play this song!
Matchbox Twenty
 Rating:
4/5 (4 votes)

 Push lessons Tabs too difficult? Try these video lessons and learn fast
 
                G|----------------|----------------|----------------|----------------||
D|4~--3~--1~~-----|4~--3~--1~~-----|4~--3~--1~~-----|4~--3~--1~~-----||
A|---4---4-----424|---4---4-----424|---4---4-----424|---4---4-----424||
E|----------------|----------------|----------------|----------------||

G|----------------|----------------|----------------|----------------||
D|----------------|----------------|----------------|----------------||
A|4444444444444444|222222222222-2-2|4444444444444444|222222-2-2~~-424||
E|----------------|----------------|----------------|----------------||

G|----------------|----------------|----------------|----------------||
D|444-333-1111----|444-333-1111----|----------------|----------------||
A|---4---4-----424|---4---4-----424|66--44--22--4424|66--44--22--4424||
E|----------------|----------------|---2---2---2----|---2---2--------||

G|----------------|----------------|----------------|----------------||
D|4~--3~--1~~-----|4~--3~--1~~-----|4~--3~--1~~-----|4~--3~--1~~-----||
A|---4---4-----424|---4---4-----424|---4---4-----424|---4---4-----424||
E|----------------|----------------|----------------|----------------||

G|----------------|----------------|----------------|----------------||
D|4~--3~--1~~-----|4~--3~--1~~-----|----------------|----------------||
A|---4---4-----424|---4---4-----424|4444444444444444|222222222222-2-2||
E|----------------|----------------|----------------|----------------||

G|----------------|----------------|----------------|----------------||
D|----------------|----------------|444-333-1111----|444-333-1111----||
A|4444444444444444|222222-2-2~~-424|---4---4-----424|---4---4-----424||
E|----------------|----------------|----------------|----------------||

G|----------------|----------------|----------------|----------------||
D|----------------|----------------|----------------|----------------||
A|66--44--22--4424|66--44--22--4424|6666444422224444|66664444---2-224||
E|---2---2---2----|---2---2--------|----------------|----------------||

G|----------------|----------------|----------------|----------------||
D|----------------|----------------|444-333-1111----|444-333-1111----||
A|6666444422224444|6666444422224444|---4---4-----424|---4---4-----424||
E|----------------|----------------|----------------|----------------||

G|----------------|----------------|----------------|----------------||
D|----------------|----------------|444-333-1111----|444-333-1111----||
A|66--44--22--4424|66--44--22--4424|---4---4-----424|---4---4-----424||
E|---2---2---2----|---2---2--------|----------------|----------------||

G|----------------|----------------|----------------||
D|444-333-1111----|444-333-1111----|4~~~~~~~~~~~~~~~||
A|---4---4-----424|---4---4-----424|----------------||
E|----------------|----------------|----------------||
            
Submit corrections


        Push lessons Hard to play? Try these video lessons and learn fast Push lessons
        
↑ Back to top | Tablatures and chords for acoustic guitar and electric guitar, ukulele, drums are parodies/interpretations of the original songs. You may use it for private study, scholarship, research or language learning purposes only