» » »

Matchbox Twenty - Argue Tabs

Artists:  A B C D E F G H I J K L M N O P Q R S T U V W X Y Z # 

Argue Tabs

(ver. 1) Click to play this song!
Matchbox Twenty
 Rating:
3.5/5 (8 votes)

 Argue lessons Tabs too difficult? Try these video lessons and learn fast
 
                

Sorry this is all of the song that I know. But I am working on the rest.

--------------2-2--------------3------3----2----0---0-0---0-0-0-0-------------
--------------3-3--------------3------3----3----3---0-0---0-0-0-0-------------
--------------2-2--------------0------0----0----0---0-0---0-0-0-0----::-------
-0-0-0-0-0-0--0-0--------------2--------------------0-0---0-0-0-0-------------
-------------------0-0-0-0-0-0-3--------------------2-2---2-2-2-2-------------
----------------------------------0-0----0----0-----------3-3-3-3-------------
 |---PM----|      |---PM------|  |PM|   |PM| |PM|                             

-------0------------0-----------0-------------3-------------------------------
---2-----2------0-----0-----2-----2-----------0-------------------------------
-----3------------2-----------0---------------0-::::::::----------------------
-0--------------------------------------------0-------------------------------
--------------0-----------3-------------------2-------------------------------
----------------------------------------------3-------------------------------
                                            |PM| G leads into chours          

-2-2--2--3-3--3--3-3--3---------------0-------------0----------0--------------
-3-3--3--3-3--3--3-3--3-----------2-----2---------3----------3----------------
-2-2--2--0-0--0--0-0--0-::::--------3-----------0----------0------::----------
-0-0--0--0-0--0--2-2--2---------0---------------------------------------------
---------2-2--2--3-3--3----------------------------------3--------------------
-----------------------------------------------3------------------------------
 |down up up is strum pattern| |leads back into verse|  

:=repeat
            
Submit corrections


        Argue lessons Hard to play? Try these video lessons and learn fast Argue lessons
        
↑ Back to top | Tablatures and chords for acoustic guitar and electric guitar, ukulele, drums are parodies/interpretations of the original songs. You may use it for private study, scholarship, research or language learning purposes only