» » »

Matchbox Twenty - 3 Am Bass

Artists:  A B C D E F G H I J K L M N O P Q R S T U V W X Y Z # 

3 Am Bass

(ver. 3) Click to play this song!
Matchbox Twenty
 Rating:
3.7/5 (6 votes)

 3 Am lessons Tabs too difficult? Try these video lessons and learn fast
 
                 Guitar Intro
At the very end play this
--------------------------13--------|
----------------------------13--9---|
------------------------------------|
------------------------------------|

Verse A
----------------------------------|
------------6---------------------|
------4-4-----4-------------------|
4-4-------------------------------|

Verse A to Verse B
This is played after the two C#’s in Verse A (Don’t play Ab or the C# after that) Just 
the slide from the E to G#

Verse B
-------------------------------|
-------------------------------|
----------------4~-------------|
0/4~---------------------------|

Bridge- Play this instead of Verse B before Chorus
----------------------------------------|
----------------------------------------|
----------------4~-----------------4~---|
0/4~-------------------4~---------------|

Chorus
-----------------------|
666--------------------|
-----6~-44x-4~---------|
-----------------------|

Chorus back to verse (Played Last time after chorus)
------------------------------|
------------------------------|
----------------44~-----------|
000----4X---------------------|

Bridge from Chorus to 3rd Verse/Breakdown
----------------------------------------------------|
----------------------------------------------------|
----4X--4-----4X--4------4X--4------4X--4-----------|
44---------44---------44---------44---------4~------|
3rd Verse/Breakdown
----------------------------------------|
----------------------------------------|
----------------4~----------------------|
0/4~------------------------4~----------|

BRIDGE to Last Chorus
----------------------------------------|
----------------------------------------|
----------------------------------------|
/4-4-4-4--4444444444444444--------------|

Chorus
-----------------------|
666--------------------|
-----6~-44x-4~---------|
-----------------------|

Bridge to Outro
----------------------|
----------------------|
----------------------|
444444444444----------|

Outro
--------------------------------------------------|
666-----------------------------------------------|
-----6X-44~-4~-----------------44~----------------|
-------------------000----4X----------------------|

Order
Intro- 0:07
Verse A x4
Verse B
Verse A x2
Verse B
Verse A x2
Verse B (with variation)
Chorus x3
Chorus to Verse
Verse A x4
Verse B
Verse A x2
Verse B
Verse A x2
Verse B (with variation)
Chorus x3
Chorus to Verse
Bridge from Chorus to 3rd Verse/Breakdown
3rd Verse/Breakdown x5 (wait for pause at beginning)
BRIDGE to Last Chorus
Chorus x3
Chorus back to verse (speed up)
Bridge to Outro
Chorus x2
Outro

There is a little fill In the Variation that I couldn't figure out so, I just put the 
changes tha would be played
            
Submit corrections


        3 Am lessons Hard to play? Try these video lessons and learn fast 3 Am lessons
        
↑ Back to top | Tablatures and chords for acoustic guitar and electric guitar, ukulele, drums are parodies/interpretations of the original songs. You may use it for private study, scholarship, research or language learning purposes only