» » »

Matchbook Romance - You Can Run But Well Find You Tabs

Artists:  A B C D E F G H I J K L M N O P Q R S T U V W X Y Z # 

You Can Run But Well Find You Tabs

(ver. 1) Click to play this song!
Matchbook Romance
 Rating:
4/5 (4 votes)


 You Can Run But Well Find You lessons Tabs too difficult? Try these video lessons and learn fast
 
                Intro
E-----0------2------0--------3-|--2~----------|
B-----1------0------0--------0-|--2~----------|
G-----0------2------0--------0-|--3~----------|
D---2------1--------2--------0-|--4~----------|
A--3----3-2----2--2--------2---|--4~----------|
E----------------0----0-2-3----|--2~----------|

Verse Guitar 1
E--0-0-0-0-0-0--2-2-2-2-2-2--0-0-0-0-0-0--2-2-2-2-2-2--|
B--0-0-0-0-0-0--0-0-0-0-0-0--1-1-1-1-1-1--0-0-0-0-0-0--|
G--0-0-0-0-0-0--2-2-2-2-2-2--0-0-0-0-0-0--2-2-2-2-2-2--|
D--2-2-2-2-2-2--1-1-1-1-1-1--2-2-2-2-2-2--1-1-1-1-1-1--|
A--2-2-2-2-2-2--2-2-2-2-2-2--3-3-3-3-3-3--2-2-2-2-2-2--|
E--0-0-0-0-0-0--0-0-0-0-0-0--0-0-0-0-0-0--0-0-0-0-0-0—-|

Guitar 2
E---------------------------------------------------|
B---------------------------------------------------|
G---------------------------------------------------|
D---------------------------------------------------|
A---------------------------------------------------|
E--000000000000777777777777888888888888777777666666-|

Chorus Guitar 1
E--0-0-0-0-0-0--2-2-2-2-2-2--0-0-0-0-0-0--3-3-3-3-3-3--|
B--1-1-1-1-1-1--0-0-0-0-0-0--0-0-0-0-0-0--0-0-0-0-0-0--|
G--0-0-0-0-0-0--2-2-2-2-2-2--0-0-0-0-0-0--0-0-0-0-0-0--|
D--2-2-2-2-2-2--1-1-1-1-1-1--2-2-2-2-2-2--0-0-0-0-0-0--|
A--3-3-3-3-3-3--2-2-2-2-2-2--2-2-2-2-2-2--2-2-2-2-2-2--|
E--0-0-0-0-0-0--0-0-0-0-0-0--0-0-0-0-0-0--3-3-3-3-3-3--|

E--0-0-0-0-0-0--2-2-2-2-2-2--0-0-0-0-0-0--3-3-3-2-2-2--|
B--1-1-1-1-1-1--0-0-0-0-0-0--0-0-0-0-0-0--0-0-0-2-2-2--|
G--0-0-0-0-0-0--2-2-2-2-2-2--0-0-0-0-0-0--0-0-0-3-3-3--|
D--2-2-2-2-2-2--1-1-1-1-1-1--2-2-2-2-2-2--0-0-0-4-4-4--|
A--3-3-3-3-3-3--2-2-2-2-2-2--2-2-2-2-2-2--2-2-2-4-4-4--|
E--0-0-0-0-0-0--0-0-0-0-0-0--0-0-0-0-0-0--3-3-3-2-2-2--|

E--0-0-0-0-0-0--2-2-2-2-2-2--0-0-0-0-0-0--3-3-3-3-3-3--|
B--1-1-1-1-1-1--0-0-0-0-0-0--0-0-0-0-0-0--0-0-0-0-0-0--|
G--0-0-0-0-0-0--2-2-2-2-2-2--0-0-0-0-0-0--0-0-0-0-0-0--|
D--2-2-2-2-2-2--1-1-1-1-1-1--2-2-2-2-2-2--0-0-0-0-0-0--|
A--3-3-3-3-3-3--2-2-2-2-2-2--2-2-2-2-2-2--2-2-2-2-2-2--|
E--0-0-0-0-0-0--0-0-0-0-0-0--0-0-0-0-0-0--3-3-3-3-3-3--|

Guitar 2
E----------------------------------------------------------|
B-121212121010101012121212--------121212121010101099997777-|
G-------------------------12121212-------------------------|
D----------------------------------------------------------|
A----------------------------------------------------------|
E----------------------------------------------------------|

Pre Verse Guitar 1
E----------------------------------|
B----------------------------------|
G----------------------------------|
D--4-4-4-4-4-4-4-4-8-8-8-8-8-8-8-8-|
A--4-4-4-4-4-4-4-4-8-8-8-8-8-8-8-8-|
E--2-2-2-2-2-2-2-2-6-6-6-6-6-6-6-6-|

Guitar 2
E----------------------------------------------------|
B-121212121010101099997777-121212121010101099997777--|
G----------------------------------------------------|
D----------------------------------------------------|
A----------------------------------------------------|
E----------------------------------------------------|

Interlude
E---------------------------------------------|
B---------------------------------------------|
G---------------------------------------------|
D---------------------------------------------|
A-555888-555888-777444-777444-555888-555888---|
E---------------------------------------------|

E---------------------------------------------|
B---------------------------------------------|
G---------------------------------------------|
D-444777-444777-666333-666333-666333-666333---|
A---------------------------------------------|
E---------------------------------------------|

E---------------------------------------------|
B---------------------------------------------|
G---------------------------------------------|
D---------------------------------------------|
A-555888-555888-777444-777444-555888-555888---|
E---------------------------------------------|

E---------------------------------------------|
B---------------------------------------------|
G---------------------------------------------|
D-444777-444777-666333-666333-666333-666333---|
A---------------------------------------------|
E---------------------------------------------|

E---------------------------------------------|
B---------------------------------------------|
G---------------------------------------------|
D---------------------------------------------|
A-555888-555888-777444-777444-666333-666333---|
E---------------------------------------------|

E---------------------------------------------|
B---------------------------------------------|
G---------------------------------------------|
D---------------------------------------------|
A-444777-444777-222555-222555-222555-222555---|
E---------------------------------------------|

Last Chorus
E--------------------------------------|-------------|
B--------------------------------------|-------------|
G--55555555-44444444-------------------|-------------|
D--55555555-44444444-22222222-55555555-|-44444444----|
A--33333333-22222222-22222222-55555555-|-44444444----|
E--------------------00000000-33333333-|-22222222----|

After chorus
E--------------------------------------|
B--------------------------------------|
G--------------------------------------|
D--8-8-8-8-8-8-8----8-8-8-8-8-8-8-8----|
A--8-8-8-8-8-8-8----8-8-8-8-8-8-8-8----|
E--6-6-6-6-6-6-6/12-6-6-6-6-6-6-6-6/12-|
(Partially palm mute)

Outro
E---------------------------------------------|
B---------------------------------------------|
G-------------3-2-0---------------------------|
D-/5-4-(2)(4)-------4--5-4-2-0-2--------------|
A---------------------------------------------|
E---------------------------------------------|

E---------------------------------------------|
B---------------------------------------------|
G--------------------3-2-0--------------------|
D-2-4-2--5-4-1--/(4)-------4--5-4-2-0-2-------|
A---------------------------------------------|
E---------------------------------------------|

E---------------------------------------------|
B---------------------------------------------|
G-------------------------3-2-0---------------|
D-2-4-2-4-5--/7-5-(2)-(4)-------4--5-4-2-0-2--|
A---------------------------------------------|
E---------------------------------------------|

E---------------------------------------------|
B---------------------------------------------|
G---------------------------------------------|
D--0-2-4~-------------------------------------|
A---------------------------------------------|
E---------------------------------------------|

come on ppl tab more songs from the voices album
            
Submit corrections



        You Can Run But Well Find You lessons Hard to play? Try these video lessons and learn fast You Can Run But Well Find You lessons
        
↑ Back to top | Tablatures and chords for acoustic guitar and electric guitar, ukulele, drums are parodies/interpretations of the original songs. You may use it for private study, scholarship, research or language learning purposes only