» » »

Mashina - Shlah Li Malach Bass

Artists:  A B C D E F G H I J K L M N O P Q R S T U V W X Y Z # 

Shlah Li Malach Bass

(ver. 1) Click to play this song!
Mashina
 Rating:
4/5 (4 votes)
                
This can be played on a 4-string if you tune your E string down to D but it might not
be very comfortable.

Main riff (Sometimes instead of doing the G-2-1- D-2 thing he goes G-1-2-4, listen
for it). There are many variations but this is basically it. You should get the rest
on your own easily:

G---2-1-------------2-1----------|
D-------2---------------2--------|
A--------------------------------|   F#
E-2-------2--0-2--2-------2--0-2-|
B--------------------------------|

G---2-1-------------2-1----------|
D-------2---------------2--------|
A--------------------------------|   E
E-0-------0----0--0-------0----0-|
B------------3---------------3---|

G---1h2p1-----------1h2p1-----(7)-|
D---------2---4----------2----(7)-|
A---------------5-----------------|  D
E---------------------------------|
B-3---------3-----3--------3------|

During the break at 2:18 he plays part of the main riff, the F# and E parts of the
riff, repeating it 4 times total.

Chorus (also has variations but this is basically it:)

G--G#------B-------E------C#------|
D---------------------------------|
A----------------------4--4-2-----|
E-4--4---7--7-7--0--0---------4-2-|
B---------------------------------|


h = hammeron
p = pulloff
(#) = natural harmonic
            
Submit corrections

↑ Back to top | Tablatures and chords for acoustic guitar and electric guitar, ukulele, drums are parodies/interpretations of the original songs. You may use it for private study, scholarship, research or language learning purposes only