Home » M » Maryzark »

Maryzark - 42 Tabs

Artists:  A B C D E F G H I J K L M N O P Q R S T U V W X Y Z # 

42 Tabs

(ver. 1) Click to play this song!
Maryzark
Album:Good Mournings
              09229015724(Sun Cell)

Hi to Honeylet again...tke cre!!

For your questions or suggestions,just post in friendster comment,PM or mail me.

Gtr.Legends:
.  - palm muting
x  - dead string
~  - let it ring
p  - pull-0ff

Gtr.Tuning:Half-Step Down

Intro prt.1(Clean Gtr.):
Gtr.1
eb|--------------------------------------|
Bb|--------------------------------------|
Gb|--------------------------------------|
Db|-66666--33333--33333--4444--2-4-4-4---|
Ab|-44444--11111--33333--4444--2-4-4-4---|
Eb|---------------11111--2222--0-2-2-2---|
                               . . . .
Gtr.2
eb|------------------------------------------------------------------------------|
Bb|-----4------4---------------------4------4------------------------------------|
Gb|---------------6p5-6-5-6-5-----------------6p5-6-5-6-5---5------5---5----5----|
Db|---6------6--------------------6-------6-------------------6--6---6---6----6--|
Ab|-4------4---------------------------------------------------------------------|
Eb|-----------------------------6-------6----------------------------------------|

-----------------------|
-----------------------|
-6-5--6-5--------------|
------------2--4-4-4---|
------------2--4-4-4---|
------------0--2-2-2---|
            .  . . .

Intro prt.2:
Gtr.1 and 2
eb|------------------------------|
Bb|------------------------------|
Gb|-66666--33333-----------------| 2x
Db|-66666--33333--33333--44444---|
Ab|-44444--11111--33333--44444---|
Eb|---------------11111--22222---|

Verse:Play Intro prt.2(Palm Muted and Distorted)

Pre-Chorus:
eb|-----------------------------------------------|
Bb|-----------------------------------------------|
Gb|-33333----------------------33333--------------|
Db|-33333--66666--44444444444--33333--66666--4~---|
Ab|-11111--66666--44444444444--11111--66666--4~---|
Eb|--------44444--22222222222---------44444--2~---|

eb|-------------------------------------------------------|
Bb|-------------------------------------------------------|
Gb|-33333----------------------------333333---------------|
Db|-33333--66666--4444-4-2-----------333333---66666--4~---|
Ab|-11111--66666--4444-----4-3-4-6---111111---66666--4~---|
Eb|--------44444--2222------------------------44444--2~---|


Chorus:Play Intro prt.2

Repeat Verse:

Repeat Pre-Chorus:

Repeat Chorus:

Bridge prt.1(Solo):
Gtr.1
Play Pre-Chorus

Gtr.2
eb|-------4--------4-----------4--------4------------4-------9-11-9-9~---|
Bb|-----2--------2-----------2--------2------------2---------------------|
Gb|-2/3------2/3------6--2/3------2/3------6---2/3------6/8--------------|
Db|----------------------------------------------------------------------|
Ab|----------------------------------------------------------------------|
Eb|----------------------------------------------------------------------|

Bridge prt.2(Bass Only)

Repeat Chorus:

Outro:
Gtr.1
Continue Chorus

Gtr.2
eb|------------------------------------      ---------------------------------|
Bb|------------------------------------      ---------------------------------|
Gb|-1111111111111111\1010101010101010-- 3x   -11111111111111/13131313131313---| 2x
Db|--x-x-x-x-x-x-x-x--x-x-x-x-x-x-x-x-- Then --x-x-x-x-x-x-x-xxxxxxxxxxxxxx---|
Ab|--9-9-9-9-9-9-9-9\-8-8-8-8-8-8-8-8--      --9-9-9-9-9-9-9/11111111111111---|
Eb|------------------------------------      ---------------------------------|

Ends with...
eb|-----------|
Bb|-----------|
Gb|-----------|
Db|-------4---|
Ab|-44444-4---|
Eb|-22222-2---|
    ..... .

End...
            
Submit corrections

↑ Back to top | Tablatures and chords for acoustic guitar and electric guitar, ukulele, drums are parodies/interpretations of the original songs. You may use it for private study, scholarship, research or language learning purposes only