» » »

Mary\\S Lamb - Hill Billy Bass

Artists:  A B C D E F G H I J K L M N O P Q R S T U V W X Y Z # 

Hill Billy Bass

(ver. 1) Click to play this song!
Mary\\S Lamb
 Rating:
4/5 (4 votes)
                G-------------------2-5-5-2-------------------
D-----------2-5--33---------3--5-2------------
A----2-5--33-----------------------3--5-2-----
E-33-------------------------------------3----

G-------------------2-5-5-2-------------------
D-----------2-5--33---------3--5-2------------
A----2-5--33-----------------------3--5-2-----
E-33-------------------------------------3----

G-------------------2-5-5-2-------------------
D-----------2-5--33---------3--5-2------------
A----2-5--33-----------------------3--5-2-----
E-33-------------------------------------3----

G-------------------2-5-5-2-------------------
D-----------2-5--33---------3--5-2------------
A----2-5--33-----------------------3--5-2-----
E-33-------------------------------------3----

G-------------------2-5-5-2-------------------
D-----------2-5--33---------3--5-2------------
A----2-5--33-----------------------3--5-2-----
E-33-------------------------------------3----

G-------------------2-5-5-2-------------------
D-----------2-5--33---------3--5-2------------
A----2-5--33-----------------------3--5-2-----
E-33-------------------------------------3----

G-------------------2-5-5-2-------------------
D-----------2-5--33---------3--5-2------------
A----2-5--33-----------------------3--5-2-----
E-33-------------------------------------3----

G-------------------2-5-5-2-------------------
D-----------2-5--33---------3--5-2------------
A----2-5--33-----------------------3--5-2-----
E-33-------------------------------------3----
it sounds like a hill billy song try it
            
Submit corrections

↑ Back to top | Tablatures and chords for acoustic guitar and electric guitar, ukulele, drums are parodies/interpretations of the original songs. You may use it for private study, scholarship, research or language learning purposes only