» » »

Mary Lambert - She Keeps Me Warm Tabs

Artists:  A B C D E F G H I J K L M N O P Q R S T U V W X Y Z # 

She Keeps Me Warm Tabs

(ver. 1) Click to play this song!
Mary Lambert
 Rating:
4/5 (4 votes)

 She Keeps Me Warm  lessons Tabs too difficult? Try these video lessons and learn fast
 
                [Intro:]
C G D D
C G D D


[Verse 1:]
C          G          D          D
She says I smell like safety and home
C       G                 D             D
I named both of her eyes ‘Forever’ and ‘Please don’t go’
C               G               D             D
I could be your morning sunrise all the time, all the time, yeah
C              G                D      (stop)
 This could be good, this could be good


[Chorus:]
  C           G           D    D
I can’t change, even if I tried
          C        G  D D
Even if I wanted to----
      C           G           D    D
And I can’t change, even if I tried
          C       G   D D
Even if I wanted to----
C                    G          D
My love, my love, my love, my love
             C   G              D
She keeps me warm, she keeps me warm


[Verse 2:]
C                       G
What’s your middle name’
                 D
Do you hate your job’
               D
Do you fall in love too easily’
C                         G
What’s your favorite word’
                    D
Do you like kissing girls’
    D (stop)        C
Can I call you baby’
 G   D   D
Yeah yeah
C             G             D (stop)
She says that people stare ‘cause we look so good together
C     G        D  D (stop)
Yeah, yeah, yeah


[Chorus:]
  C          G          D
I can’t change, even if I tried
          C       G  D
Even if I wanted to---
      C         G           D
And I can’t change, even if I tried
          C       G   D
Even if I wanted to---
C                    G          D
My love, my love, my love, my love
             C    G             D  //one down stroke each
She keeps me warm, she keeps me warm
             C    G             D    (stop) //down-strokes
She keeps me warm, she keeps me warm


[C-Part:]

C G D D
C G D D

                  C        G                D
I’m not crying on Sundays, Im not crying on Sundays (x2)
                  C        G  D
I’m not crying on Sundays, no


C G D D //x4
Oh-------
(Love is patient, love is kind)

C                    G          D  //one down stroke each
My love, my love, my love, my love
             C    G             D
She keeps me warm, she keeps me warm

What I like to do is I pick out the first verse and first chorus and then I start strumming
when the second verse begins.
This is what I’m doing. It is not the exact same thing as what she is playing on the piano but
I think it sounds quite close.
Please note that it is a tab for the first version (with the capo on the 6th fret, see above).
And of course the chords are all relative to the capo.

INTRO
    C        G        D       D
e|--0---0----3---3----2---2---2---2h3p2------------------------------------|
B|--1---1----0---0----3---3---3---3-----3----------------------------------|
G|----2---2----0---0----2---2---2------------------------------------------|
D|--------------------0----------------------------------------------------|
A|--3----------------------------------------------------------------------|
E|-----------3-------------------------------------------------------------|

    C        G        D       D
e|--0---0----3---3----2----------------------------------------------------|
B|--1---1----0---0----3-------3--3-----------------------------------------|
G|----2---2----0---0----------0--2-----------------------------------------|
D|--------------------0-------0--------------------------------------------|
A|--3----------------------------------------------------------------------|
E|-----------3-------------------------------------------------------------|

VERSE 1
    C          G          D          D
e|--0----------3----------2----------2-------------------------------------|
B|--1----------0----------3----------3-------------------------------------|
G|------2-------------0--------------------0-------------------------------|
D|------------------------0----------0---0---------------------------------|
A|--3----------------------------------------------------------------------|
E|-------------3-----------------------------------------------------------|
    She says I smell like safety and home

    C        G                 D             D
e|--0---0----3---3-------------2--2----------2-----------------------------|
B|--1---1----0---0-0-----------3--3----------3-----------------------------|
G|----2---2----0-----0-----------------------2-------------2p0---0---------|
D|-----------------------------0-------------------------------0-----------|
A|--3----------------------------------------------------------------------|
E|-----------3-------------------------------------------------------------|
    I named  both of her eyes ‘Forever’ and ‘Please don’t go’

    C               G               D             D
e|--0-------0-------3---3-----------2------2------2------------------------|
B|--1-------1-------0---0-0---------3------3------3------------------------|
G|----2-------2-------0-----0----------------2----------2--2p0---0---------|
D|----------------------------------0-------------0------------0-----------|
A|--3----------------------------------------------------------------------|
E|------------------3------------------------------------------------------|
    I could be your morning sunrise all the time, all the time, yeah

    C                   G              D
e|--0-----0-------------3-----3----------2--2--2---------------------------|
B|--1-----1-------------0-----0----------3--3--3---------------------------|
G|-----2-------2----------0--------0--------2--2---------------------------|
D|---------------------------------------0---------------------------------|
A|--3----------------------------------------------------------------------|
E|----------------------3--------------------------------------------------|
          This could be good, this could be good

CHORUS
      C          G           D       D
e|----0-----0----3---3-------2---2---2-------------------------------------|
B|----1-----1----0---0-0-----3---3---3-------------------------------------|
G|------2-----2----0-----0-----2---2-----2-2p0---0-------------------------|
D|---------------------------0---------0--(0)--0---------------------------|
A|----3--------------------------------------------------------------------|
E|---------------3---------------------------------------------------------|
    I can’t change even if I tried

            C           G          D       D
e|----------0------0----3---3------2---2---2--------------------------------|
B|----------1------1----0---0-0----3---3---3--------------------------------|
G|------------2------2----0-----0----2---3-----2-2p0---0--------------------|
D|---------------------------------0---------0--(0)--0----------------------|
A|----------3---------------------------------------------------------------|
E|----------------------3---------------------------------------------------|
  Even if I wanted to-------------------------------------------------------|
      C          G           D       D
e|----0-----0----3---3-------2---2---2-------------------------------------|
B|----1-----1----0---0-0-----3---3---3-------------------------------------|
G|------2-----2----0-----0-----2---2-----2-2p0---0-------------------------|
D|---------------------------0---------0--(0)--0---------------------------|
A|----3--------------------------------------------------------------------|
E|---------------3---------------------------------------------------------|
    I can’t change even if I tried

            C           G          D
e|----------0------0----3---3------2----------------------------------------|
B|----------1------1----0---0-0----3----------------------------------------|
G|------------2------2----0-----0-------------------------------------------|
D|---------------------------------0----------------------------------------|
A|----------3---------------------------------------------------------------|
E|----------------------3---------------------------------------------------|
  Even if I wanted to-------------------------------------------------------|

    C                    G          D
e|--0--------------------3----------2--------------------------------------|
B|--1--------------------0----------3--------------------------------------|
G|--0--------------------0----------2--------------------------------------|
D|----------------------------------0--------------------------------------|
A|--3----------------------------------------------------------------------|
E|-----------------------3-------------------------------------------------|
    My love, my love, my love, my love

               C         G          D
e|-------------0---0-----3---3------2--------------------------------------|
B|-------------1---1-----0---0------3--------------------------------------|
G|---------------0---0-----0---0----2--------3--3--------------------------|
D|----------------------------------0--------0--2--------------------------|
A|-------------3-----------------------------------------------------------|
E|-----------------------3-------------------------------------------------|
  She keeps me warm,       she keeps me warm


When I strum in the second verse I’m making this muted sound by using my palm. The
picking pattern I’m doing is something like (C) d d d du (G) d d d du (D) d d d du d dududu
And in the chorus I mostly let the chords ring more. (C) d d d du (G)d dududu (D) d d d d d dududu
And (C) d d d du (G) Dudud dudu (D) d d d du udududu
To be honest I just do whatever feels right in the moment. ;)


LAST LINE:
                  C         G             D
e|--3---2---------0---0-----3---3---------2--------------------------------|
B|----3---3-------1---1-----0---0---------3--------------------------------|
G|------------------0---0-----------------2--------------------------------|
D|----------------------------------------0--------------------------------|
A|----------------3--------------------------------------------------------|
E|--------------------------3----------------------------------------------|
     She keeps me warm,      she keeps me warm            
Submit corrections


        She Keeps Me Warm  lessons Hard to play? Try these video lessons and learn fast She Keeps Me Warm  lessons
        
↑ Back to top | Tablatures and chords for acoustic guitar and electric guitar, ukulele, drums are parodies/interpretations of the original songs. You may use it for private study, scholarship, research or language learning purposes only