Home » M » Marvin Gaye »

Marvin Gaye - Aint That Peculiar Tabs

Artists:  A B C D E F G H I J K L M N O P Q R S T U V W X Y Z # 

Aint That Peculiar Tabs

(ver. 1) Click to play this song!
Marvin Gaye
Ain´t that peculiar
Marvin Gaye

The basic piano riff on the E is D, E and F#m:
---------------|---------------|----------------|
----7-----9----|10----9-----7--|----------------|
----7-----9----|11----9-----7--|----------------|
----7-----9----|11----9-----7--|----------------|
---------------|---------------|----------------|
---------------|---------------|----------------|

(A)
---------------|---------------|----------------|
----7---5-----7|--5-7---5---7--|----------------|
----7---6-----7|--6-7---6---7--|----------------|
---------------|---------------|----------------|
---------------|---------------|----------------|
---------------|---------------|----------------|

(B)
---------------|---------------|----------------|
----9---7-----9|--7-9---7---9--|----------------|
----9---8-----9|--8-9---8---9--|----------------|
---------------|---------------|----------------|
---------------|---------------|----------------|
---------------|---------------|----------------|



E D F#m (Riff)
Honey, you do me wrong but still I'm crazy about you
Stay away too long and I can't do without you
A
Every chance you get, you seem to hurt me more and more
E D F#m
But each hurt makes my love stronger than before

B
I know flowers grow through rain
A
But how can love grow through pain

E D F#m
Ain't that peculiar
E D F#m
A peculiarity
E D F#m
Ain't that peculiar, baby
E D F#m
Peculiar as can be, oh

E D F#m
You tell me lies that should be obvious to me
But I'm so much in love with you baby 'til I don't want to see
A
But that things you do and say are designed to make me blue
E D F#m
It's a dog gone shame my love for you makes all your lies seem true

B
But if the truth makes love last longer
A
Why do lies make my love stronger

E D F#m
Ain't that peculiar, baby
E D F#m
Peculiar as can be
E D F#m
Ain't that peculiar
E D F#m
A peculiarity, yeah yeah

E D F#m
I cried so much just like a child that's lost his toy
Maybe baby, you think these tears I cry are tears of joy
A
A child can cry so much until you do everything they say
E D F#m
But unlike a child, my tears don't help me to get my way

B
I know love can last through years
A
But how can love last through tears

E D F#m
Ain't that peculiar, baby
E D F#m
Peculiar as can be
E D F#m
Ain't that peculiar, honey
E D F#m
Peculiar as can be

E D F#m
Said, "I don't understand it, baby"
It's so strange sometimes
Ain't that peculiar, darlin'
Oh



Songwriters
Moore, Warren / Rogers, Robert / Tarplin, Marvin / Robinson Jr., William

Published by
Lyrics © EMI Music Publishing, Universal Music Publishing Group

Read more: Marvin Gaye - Ain't That Peculiar Lyrics | MetroLyrics
            
Submit corrections

↑ Back to top | Tablatures and chords for acoustic guitar and electric guitar, ukulele, drums are parodies/interpretations of the original songs. You may use it for private study, scholarship, research or language learning purposes only