Home » M » Marvelous 3 »

Marvelous 3 - Vampires In Love Tabs

Artists:  A B C D E F G H I J K L M N O P Q R S T U V W X Y Z # 

Vampires In Love Tabs

(ver. 1) Click to play this song!
Marvelous 3
  Intro :
eb|---------------------------------------------------------------------------|
Bb|---------------------------------------------------------------------------|
Gb|---------------------------------------------------------------------------|
Db|-------4p3-----------------------------4p3---------------------------------|
Ab|-----------6-4-----------------------------6-4-----------------------------|
Eb|-1/2-----------6-4v--------------1/2-----------6-4v------------------------|
    & 1 & 2 & 3 & 4 & 1 & 2 & 3 & 4 & 1 & 2 & 3 & 4 &
  Verse:  
eb|---------------------------------------------------------------------------|
Bb|---------------------------------------------------------------------------|
Gb|---------------------------------------------------------------------------|
Db|-6-6-6-6-6-6-6-------------------------------------------------------------|
Ab|-4-4-4-4-4-4-4---3-3-3-3-3-3-3-3-4-4-4-4-4-4-4-4-6-6-6-6-6-6-6-6-----------|
Eb|---------------2-1-1-1-1-1-1-1-1-2-2-2-2-2-2-2-2-4-4-4-4-4-4-4-4-----------|
    . . . . . . . . . . . . . . . . . . . . . . . . . . . . . . . .
    1 & 2 & 3 & 4 & 1 & 2 & 3 & 4 & 1 & 2 & 3 & 4 & 1 & 2 & 3 & 4 &
eb|---------------------------------------------------------------------------|
Bb|---------------------------------------------------------------------------|
Gb|---------------------------------------------------------------------------| Do this Twice
Db|-6-6-6-6-6-6-6-------------------------------------------------------------|
Ab|-4-4-4-4-4-4-4---3-3-3-3-3-3-3-3-4-4-4-4-4-4-4-4-6-6-6-6---6-6-------------|
Eb|---------------2-1-1-1-1-1-1-1-1-2-2-2-2-2-2-2-2-4-4-4-4---4-4-------------|
    . . . . . . . . . . . . . . . . . . . . . . . . . .  
    1 & 2 & 3 & 4 & 1 & 2 & 3 & 4 & 1 & 2 & 3 & 4 & 1 & 2 & 3 & 4 & 
eb|----------------------------------------------------------------------------|
Bb|----------------------------------------------------------------------------|
Gb|----------------------------------------------------------------------------|
Db|-6-6-6-6-6-6-6--------------------------------------------------------------|
Ab|-4-4-4-4-4-4-4---3-3-3-3-3-3-3-3-4-4-4-4-4-4-4-4-6-6-6-6-6-6-6-6------------|
Eb|---------------2-1-1-1-1-1-1-1-1-2-2-2-2-2-2-2-2-4-4-4-4-4-4-4-4------------|
    . . . . . . . . . . . . . . . . . . . . . . . . Increasingly Louder    
    1 & 2 & 3 & 4 & 1 & 2 & 3 & 4 & 1 & 2 & 3 & 4 & 1 & 2 & 3 & 4 &

  Pre-chorus:
eb|-------------------------------------------------------------------------------------------------|
Bb|-------------------------------------------------------------------------------------------------|
Gb|-------------------------------------------------------------------------------------------------|
Db|-------------3-----------------------------------------------------------------------------------|
Ab|/4---4---4-6---6-6---4---3----------------------------------------4---4---4---4---6---6----------|
Eb|-----------------------------4v-4-6-6-6-6-4-4-4-4-3-3-3-3-3-3-3-3-2---2---2---2---4---4----------|
    
    1 & 2 & 3 & 4 & 1 & 2 & 3 & 4  & 1 & 2 & 3 & 4 & 1 & 2 & 3 & 4 & 1 & 2 & 3 & 4 & 1 & 2 & 3 & 4 &
 
eb|----------------------------------------------------------------------------------|
Bb|----------------------------------------------------------------------------------|
Gb|-6-6-6-6-6-6-6-6------------------------------------------------------------------|
Db|-6-6-6-6-6-6-6-6------------------------------------------------------------------|
Ab|-4-4-4-4-4-4-4-4------------------------------------------------------------------|
Eb|-----------------Tremelo pick down -----------------------------------------------|
    1 & 2 & 3 & 4 & 1 & 2 & 3 & 4 &
  
   Chorus:
eb|----------------------------------------------------------------------------------|
Bb|----------------------------------------------------------------------------------|
Gb|-6-6-6-6-6-6-6-6------------------------------------------------------------------|
Db|-6-6-6-6-6-6-6-6-6-6-6-6-6-6-6-6-------------------6-6-6-6-6-6-6------------------|
Ab|-4-4-4-4-4-4-4-4-6-6-6-6-6-6-6-6-4-4-4-4-4-4-4-4-6-6-6-6-6-6-6-6------------------|
Eb|-----------------4-4-4-4-4-4-4-4-2-2-2-2-2-2-2-1-4-4-4-4-4-4-4-4------------------|
    
    1 & 2 & 3 & 4 & 1 & 2 & 3 & 4 & 1 & 2 & 3 & 4 & 1 & 2 & 3 & 4 & 
eb|----------------------------------------------------------------------------------|
Bb|----------------------------------------------------------------------------------|
Gb|-6-6-6-6-6-6-6-6------------------------------------------------------------------|
Db|-6-6-6-6-6-6-6-6-3-3-3-3-3-3-3-3-4-4-4-4-4-4-4-4----------------------------------|
Ab|-4-4-4-4-4-4-4-4-3-3-3-3-3-3-3-3-4-4-4-4-4-4-4-4-6-6-6-6-6-6-6-6------------------|
Eb|-----------------1-1-1-1-1-1-1-1-2-2-2-2-2-2-2-2-4-4-4-4-4-4-4-4------------------|
    
    1 & 2 & 3 & 4 & 1 & 2 & 3 & 4 & 1 & 2 & 3 & 4 & 1 & 2 & 3 & 4 &
 
   I have my second guitarist play this twice during the chorus: 
eb|-------------------------------------------------------------------------------------------------|
Bb|-14----14----14----14----13----13----13----13----14----14----14-13-14----13----13----13----13----|
Gb|----13----13----13----13----13----13----13----13----13----13----------13----13----13----13----13-|
Db|-------------------------------------------------------------------------------------------------|
Ab|-------------------------------------------------------------------------------------------------|
Eb|-------------------------------------------------------------------------------------------------|
    1  &  2  &  3  &  4  &  1  &  2  &  3  &  4  &  1  &  2  &  3  &  4  &  1  &  2  &  3  &  4  &
  
Post-Chorus
eb|---------------------------------------------------------------------------|
Bb|---------------------------------------------------------------------------|
Gb|---------------------------------------------------------------------------|
Db|-------4p3-----------------------------4p3---------------------------------|
Ab|-----------6-4-----------------------------6-4----------6-6---6-6----------|
Eb|-1/2-----------6-4v--------------1/2-----------6-4v-----4-4-x-4-4----------|
    & 1 & 2 & 3 & 4 & 1 & 2 & 3 & 4 & 1 & 2 & 3 & 4 &  1 & 2 & 3 & 4 & 

Play the Verse Pre-chorus, and Chorus again, but not the Post-Chorus. Play Bridge instead. 
  End of second Verse fill 
eb|-4p2---------------------------------X-2--------|
Bb|-----6-4-----------------------------X-2--------|
Gb|---------6-5-3-----------------------X-3--------|  Just strum the F chord for that measure, especially the
Db|---------------6-4-3-------------4---X-4--------| 
Ab|---------------------6-4-3-------4-----4--------|  the top three or four strings.
Eb|---------------------------6-4-1-2-----2--------|
        
    1 & 2 & 3 & 4 & 1 & 2 & 3 & 4 & 1 & 2 & 3 & 4 &
  Bridge: 
eb|---------------------------------------------------------------------------|
Bb|---------------------------------------------------------------------------|
Gb|-6-6-6-8-8-8-10-10-10/11-11-11-10-10-10-8-8--------------------------------|
Db|---------------------------------------------------------------------------|
Ab|-4-4-4-6-6-6-8--8--8/9---9--9--8--8--8--6-6--------------------------------|
Eb|---------------------------------------------------------------------------|
  
Solo:
eb|-14p13------------------------14p13------------------------14p13--------------------------|
Bb|-------16-14-13v-14-----------------16-14-13v-14-----------------16-14-13v-14-------------|
Gb|--------------------15-13-13v--------------------15-13/20v--------------------15-13v------|
Db|------------------------------------------------------------------------------------------|
Ab|------------------------------------------------------------------------------------------|
Eb|------------------------------------------------------------------------------------------|
                                      Solo Harmony (Comes in on third the time 
eb|-14p13---------------------20-21v-|-18p16----------------------18p16---------------------20-21---|
Bb|-------16-14-13v-14---------------|-------19-18-16v-18---------------19-18-16v-18----------------|
Gb|--------------------15v-13--------|--------------------18v-17v--------------------18v-17---------|
Db|----------------------------------|--------------------------------------------------------------|
Ab|----------------------------------|--------------------------------------------------------------|
Eb|----------------------------------|--------------------------------------------------------------|     
  Solo Rythm 
eb|----------------------------------|
Bb|----------------------------------|  Play Four times under the solo. try using the neck pickup to get the
Gb|----------------------------------|  
Db|-4-4-4-4-4-4-4-4-6-6-6-6-6-6-6-6--|  Synth tone. I believe its a synth on the album, but you can get
Ab|-4-4-4-4-4-4-4-4-6-6-6-6-6-6-6-6--|  the tone
Eb|-2-2-2-2-2-2-2-2-4-4-4-4-4-4-4-4--|  on guitar without too much trouble. 

    1 & 2 & 3 & 4 & 1 & 2 & 3 & 4 & 
  Outro: Play the chorus twice, then play this twice over the chorus progression. 
eb|-----------------------------------------------------------------------------------------------------|
Bb|-14----14----16----14----13----13----14----13----14----14----16----14-13----13----13----13-----------|
Gb|----13----13----13----13----13----13----13----13----13----13----13-------13----13----13----13--------|
Db|-----------------------------------------------------------------------------------------------------|
Ab|-----------------------------------------------------------------------------------------------------|
Eb|-----------------------------------------------------------------------------------------------------|
    1  &  2  &  3  &  4  &  1  &  2  &  3  &  4  &  1  &  2  &  3  &  4  &  1  &  2  &  3  &  4  &
  Outro: Play after the part above and continue until whenever you feel like. 
eb|-------------------------------------------|
Bb|-------------------------------------------|
Gb|-------------------------------------------|
Db|-------------------------------------------|
Ab|--4-4-4-4-4-6-8\6-6-6-6-6-6-6-6-3----------|
Eb|--2-2-2-2-2-4-6\4-4-4-4-4-4-4-4-1----------|
     . . . . . . . . . . . . . . . .   
     1 & 2 & 3 & 4 & 1 & 2 & 3 & 4 &             
Submit corrections

↑ Back to top | Tablatures and chords for acoustic guitar and electric guitar, ukulele, drums are parodies/interpretations of the original songs. You may use it for private study, scholarship, research or language learning purposes only