Home » M » Marty Friedman »

Marty Friedman - West Tabs

Artists:  A B C D E F G H I J K L M N O P Q R S T U V W X Y Z # 

West Tabs

(ver. 1) Click to play this song!
Marty Friedman
#

West by Marty Friedman from the album Scenes

This is part of West.  I'll get the entire song done someday.
I'll also put the chords for the apreggios in sometime.

|-------------------||--------------------------------|----------------------|
|------------5---8~-||-----------5---8---10---12\8-8~-|------8---10~---------|
|----5---7----------||o--5---7------------------------|--9-------------------|
|-------------------||o-------------------------------|----------------------|
|-------------------||--------------------------------|----------------------|
|-------------------||--------------------------------|----------------------|

|---7----8-----10--7--8-|--7----------------------------------------||
|-----------------------|-----8---10-----8---------------------8~---||
|-----------------------|-------------------10----8------7--9------o||
|-----------------------|-----------------------------10-----------o||
|-----------------------|-------------------------------------------||
|-----------------------|-------------------------------------------||

The above is played over and over...   Then he arpeggiates the following
on top:

|--8----5------------------------8----5------------------------------|
|----8----5--8----5----------------8----5--8----5--------------------|
|--------------7----5--7----5----------------7----5--7----5----------|
|------------------------7----5------------------------7----5--------|
|--------------------------------------------------------------------|
|--------------------------------------------------------------------|

|--7---3-----------------3-----7---3-----------------3--------|
|----5-----5-----------5---------5-----5-----------5----------|
|--------4-----4-----4---------------4-----4-----4------------|
|------------5-----5---------------------5-----5--------------|
|----------------7---------------------------7----------------|
|-------------------------------------------------------------|

|--12-----8----------------------8------10---7------------------------|
|-----10------10--------------10-----------8-----8---8---8---8--------|
|-----------9-------9-------9------------------9---7---7---7----------|
|----------------10------10-------------------------------------------|
|---------------------12----------------------------------------------|
|---------------------------------------------------------------------|

|---8---5---------------------8---5--------------------8---5---------------|
|-----6-----6-------------------6-----6------------------8---5--8----5~----|
|---------8---5-8---5---------------8---5-8---5--------------------7-------|
|-----------------7-----7-------------------7-----7------------------------|
|---------------------8---6---------------------8---6----------------------|
|--------------------------------------------------------------------------|

Enjoy...

If you have any Friedman, Legg, Vai, or Hoey tabs, please email them to me
or put them on olga.

-Sean Kasun
            
Submit corrections

↑ Back to top | Tablatures and chords for acoustic guitar and electric guitar, ukulele, drums are parodies/interpretations of the original songs. You may use it for private study, scholarship, research or language learning purposes only