Home » M » Martin Solveig »

Martin Solveig - Jealousy Tabs

Artists:  A B C D E F G H I J K L M N O P Q R S T U V W X Y Z # 

Jealousy Tabs

(ver. 1) Click to play this song!
Martin Solveig
 16 fois:

riff 1

-10---10-x-x-10---10-x-x-13-13-x-x---|
-11---11-x-x-11---11-x-x-11-11-x-x---|
-12---12-x-x-12---12-x-x-12-12-x-x---|
-------------------------------------|
-------------------------------------|
-------------------------------------|

riff 2A
-15-15-15-15-x-x-15-x--x-x-x--x--x-|
-16-16-16-16-x-x-16-x--x-x-x--x--x-|
-17-17-17-17-x-x-17-x--x-x-x--x--x-|
-----------------------------------|
-----------------------------------|
-----------------------------------|

riff 2B

-15-15-15-15-x-15-x-15-x-15-x-x-15-15-x-x-|
-16-16-16-16-x-16-x-16-x-16-x-x-16-16-x-x-|
-17-17-17-17-x-17-x-17-x-17-x-x-17-17-x-x-|
------------------------------------------|
------------------------------------------|
------------------------------------------|

riff 2C

-18-18-18-18-x-18-x-18-x-18-x-x-18-18-x-x-|
-16-16-16-16-x-16-x-16-x-16-x-x-16-16-x-x-|
-17-17-17-17-x-17-x-17-x-17-x-x-17-17-x-x-|
------------------------------------------|
------------------------------------------|
------------------------------------------|


La structure: 2A, 2B, 2A, 2C
            
Submit corrections

↑ Back to top | Tablatures and chords for acoustic guitar and electric guitar, ukulele, drums are parodies/interpretations of the original songs. You may use it for private study, scholarship, research or language learning purposes only