Home » M » Martin Odonnell »

Martin Odonnell - Unforgotten Tabs

Artists:  A B C D E F G H I J K L M N O P Q R S T U V W X Y Z # 

Unforgotten Tabs

(ver. 1) Click to play this song!
Martin Odonnell
Solo Guitar (Std tuning),time signature is [4/4] during the intro, then rest is [3/4], let ring
  
            

E||--------------------|-------------------|---------------------|-------------------|----------------------|
B||--------------------|-------------------|-----------0---------|-------------------|--0------2--3---------|
G||-----------2--------|-------------------|------------------2--|-------------------|-------------------2--|
D||--0-----------------|--2----------------|--0------------------|--2----------------|----------------------|
A||--------------------|--0----------------|---------------------|--0----------------|--2-------------------|
E||--2--------3--------|-------------------|--2--------3---------|-------------------|------------3---------|  
  [4/4]                       
         
--0------------------|--------------------|-------------------|----------------------|-------------------|
-----------3------2--|--0-----------------|--0----------------|----------------------|--0----------------|
---------------------|-----------2--------|-------------------|----------------------|-------------------|
-----------0---------|--------------------|--2----------------|--4-------------------|-------------------|
--0------------------|-----------0--------|-------------------|--4--------(5)--------|--7----------------|
---------------------|--3-----------------|--0----------------|----------------------|--0----------------|


----------------------|-------------------|-----------------|-----------------|-----------------|
----------------------|--0----------------|--------3--------|--------0--------|-----------------|
----------------------|-------------------|-----------------|-----------------|--------2--------|
--4-------------------|-------------------|-----4-----------|-----0-----------|-----2-----------|
--4--------(5)--------|-------------------|--2--------------|-----------------|--0--------------|
----------------------|--0----------------|-----------------|--3--------------|-----------------|
                                          [3/4]
     
-----------------0--|-----------------------|-------------------|-----------------|-----------------|
-----------0--2-----|--3----------3------3--|--2-----0-------0--|-----------------|-----------------|
--------2-----------|-----------------------|-------------------|--2-----2--------|-----------------|
-----2--------------|----------4--4---------|-----0--0----0-----|-----2-----------|-----------------|
--0-----------------|--2--------------------|-------------------|--0--------------|--(0)------------|
--------------------|-----------------------|--3----------------|-----------------|-----------------|


-----------------|-----------------|------------------|----------------0--|-------------------------|
--------3--------|--------0--------|------------------|----------0--2-----|--3----------2--3--2--3--|
-----------------|--2-----2--------|--------2---------|-------------------|-------------------------|
-----4-----------|-----0-----------|--2--2-------2----|-------2-----------|----------4--4-----------|
--2--------------|-----------------|--0---------------|--0----------------|--2----------------------|
-----------------|--3--------------|------------------|-------------------|-------------------------|


--------------------|------------------|-------------------|-------------------------|--------------------|
--2--------0-----0--|---------------0--|--2----------0--2--|-------------3--2--2-----|--3-----0-----------|
--------2-----2--0--|--2-----2---------|----------2--------|--4----------------4-----|-----------2--0-----|
-----0--0-----------|-----2------------|-------2-----------|----------4-----------4--|-----0-----------0--|
--------------------|--0---------------|-------------------|--2----------------------|--------------------|
--3-----------------|------------------|-------------------|-------------------------|--3-----------------|

  
--0-----------0--0--|--------------------|-------------------|--------------0--5--|------------------|
-----------0--2-----|--3--------3--2-----|--0-----------0----|--------2--3--------|--0----------0----|
--------2-----------|--------2--------2--|--------0--2-------|--2-----2-----------|------------------|
-----2--------------|-----4--------------|-----0-------------|-----2--------------|--------2---------|
--0-----------------|--5-----------------|-------------------|--0-----------------|-----2------------|
--------------------|--------------------|--3----------------|--------------------|--0---------------|

     
-----------------|-----------------|-----------------|------------------|-----------------|-----------------|
-----------------|-----------------|-----------------|--0----------0----|-----------------|-----------------|
-----------------|--------4--------|--------4--------|------------------|-----------------|--------4--------|
--------2--------|--4--4-----------|--4--4-----------|--------2---------|--------2--------|--4--4-----------|
-----2-----------|-----------------|--5--------------|-----2------------|-----2-----------|-----------------|
--0--------------|--7--------------|--7--------------|--0---------------|--0--------------|--7--------------|

                 
-----------------|-----------------|---------------|--------(7)--------|--L------------|---------------||
-----------------|--0--------------|--L------------|-------------------|---------------|---------------||
--------4--------|-----------------|---------------|-------------------|---------------|---------------||
--4--4-----------|--------2--------|--L------------|-----(0)-----------|--L------------|---------------||
--5--------------|-----2-----------|--L------------|-------------------|---------------|---------------||
--7--------------|--0--------------|--L------------|--(7)--------------|--L------------|---------------||            
Submit corrections

↑ Back to top | Tablatures and chords for acoustic guitar and electric guitar, ukulele, drums are parodies/interpretations of the original songs. You may use it for private study, scholarship, research or language learning purposes only