Home » M » Martin Nievera »

Martin Nievera - Be My Lady Tabs

Artists:  A B C D E F G H I J K L M N O P Q R S T U V W X Y Z # 

Be My Lady Tabs

(ver. 1) Click to play this song!
Martin Nievera
[Verse]

E|--0------------|
B|-----3—3p2--2--|
G|------------2--|
D|------------2--|
A|--------0---0--|
E|---------------|
           A
   Be my lady

E|--0--------------------------0--2--|
B|-----3--3--2--2--0-----0-----3--3--|
G|-----------------2--2-----2-----2--|
D|-----------------2-----------0--0--|
A|-----------------0-----------------|
E|--------0--------------------------|
          Em7              A              D
   Come to me and take my hand and be my lady

E|--2--4--4--2--2--4--4--|
B|-----------------------|
G|-----------------------|
D|--------1--------------|
A|-----------------------|
E|--------------------4--|
          Cdim           G#7
   Truly, I must let you know 

E|--------------------|
B|--7--5--4--7--5--5--|
G|-----------------6--|
D|-----------------6--|
A|-----------4-----4--|
E|--------------------|
               C#m         
   That I'm in love with you,

E|--4--2--2-----------------|
B|-----------5--5-----------|
G|-----------------------2--|
D|--------------------4-----|
A|-----------------4--------|
E|--------2-----------------|
           F#7
   All I want is you

E|--2--------------2--0-----------0--|
B|-----5--5--3--3--3--0-----------0--|
G|--------------4--------------1-----|
D|--------------4-----------2--------|
A|--------2-----2--------2-----------|
E|--------------------0--------------|
          Bm            E
   How I need you, so please
E|--0------------|
B|-----3—3p2--2--|
G|------------2--|
D|------------2--|
A|--------0---0--|
E|---------------|
           A
   Be my lady

E|--0------------------|
B|-----3--3--2--2--0---|
G|-----------------2---|
D|-----------------2---|
A|-----------------0---|
E|--------0------------|
         Em7                 A
   Maybe you would lose the pain 

E|-----------0--2--|
B|-----0-----3--3--|
G|--2-----2-----2--|
D|-----------0--0--|
A|-----------------|
E|-----------------|
                D
   If you just tell me

E|--2--4--4--2--2--4--4-----|
B|-----------------------7--|
G|--------------------------|
D|--------1-----------------|
A|--------------------------|
E|--------------------4-----|
           Cdim              G#7
   Say the words you long to whisper

E|-----------------|
B|--5--4--7--5--5--|
G|--------------6--|
D|--------------6--|
A|--------4-----4--|
E|-----------------|
          C#m        
   That I want to hear
 
E|--4--2--2-----------------|
B|-----------5--5-----------|
G|-----------------------2--|
D|--------------------4-----|
A|-----------------4--------|
E|--------2-----------------|
               F#7
   Something's on your mind

E|--2-----------4--5--7--------------|
B|-----5--5--3--------------------9--|
G|-----------4-----------------9-----|
D|-----------4--------------9--------|
A|--------2--2-----------7-----------|
E|--------------------0--------------|
            Bm             E7
   Is it hidden   in your smile


[Chorus]        

E|-----------------|
B|--2--0--3--2-----|
G|--------------2--|
D|-----------------|
A|--------0--------|
E|-----------------|  
          A
   Be my lady

E|--0--------------|
B|-----3--3--2--2--|
G|-----------------|
D|-----------------|
A|-----------------|
E|--------0--------|
        Em
   Just forget the past

E|-----------------0--------|
B|--0--0-----0-----3--3-----|
G|-----2--2-----2--------2--|
D|-----2-----------0--------|
A|-----0--------------------|
E|--------------------------|
         A7                D
   It's time to mend your broken heart

E|--0--0--0--------------|
B|--------3--3--3--2--2--|
G|--------2--------------|
D|--------0--------------|
A|-----------------------|
E|-----------------------|
           Dm
   Let no walls divide us now
  
E|--0-----------------------------0--------|
B|-----3--3--2--2--0--0-----0-----3--3-----|
G|--------------------2--2-----2--------2--|
D|--------------------2-----------0--------|
A|--------------------0--------------------|
E|--------0--------------------------------|
               A            F#m
   Dry up the tears in your eyes

E|--------------------|
B|-----------2--3-----|
G|--------2--------4--|
D|--4--4--------------|
A|-----------2--------|
E|--------------------|
                Bm
   Nothing can stop us now

E|-----------------------------------|
B|-----------2--3--2--0-----------0--|
G|--------2-----------1--------1-----|
D|--4--4--------------------2--------|
A|-----------2-----------2-----------|
E|--------------------0--------------|
                  E         
   I'll give you all that I have


[Verse]

E|--0------------|
B|-----3—3p2--2--|
G|------------2--|
D|------------2--|
A|--------0---0--|
E|---------------|
           A
   Be my lady

E|--0--------------------------0--2--|
B|-----3--3--2--2--0-----0-----3--3--|
G|-----------------2--2-----2-----2--|
D|-----------------2-----------0--0--|
A|-----------------0-----------------|
E|--------0--------------------------|
              Em7          A                D    
   You're the one that I adore so please believe me

E|--2--4--4--2--2--4--4-----|
B|-----------------------7--|
G|--------------------------|
D|--------1-----------------|
A|--------------------------|
E|--------------------4-----|
         Cdim           G#7
   I can never find the courage 
   
E|-----------4-----|
B|--5--4--7-----5--|
G|--------------6--|
D|--------------6--|
A|--------4-----4--|
E|-----------------|
        C#m          
   To resist your charm

E|--4--2--2-----------------|
B|-----------5--5-----------|
G|-----------------------2--|
D|--------------------4-----|
A|-----------------4--------|
E|--------2-----------------|
             F#7
   Nothing's more divine 

E|--2-----------------10--9--7--------------|
B|-----5--5--------3---------------------9--|
G|--------------4---------------------9-----|
D|-----------4---------------------9--------|
A|--------2---------------------7-----------|
E|---------------------------0--------------|
             Bm                E
   Than each moment   you are mine


[Chorus] 

E|--9--7—10p9--5--------|
B|----------------5-----|
G|-------------------6--|
D|----------------------|
A|--------0-------------|
E|----------------------|      
          A
   Be my lady

E|--12--10--10--9--9--|
B|--------------------|
G|--------------------|
D|--------------------|
A|--------------------|
E|----------0---------|
           Em
   Just forget the past
   
E|----------------------12--10------|
B|--12--12--10--12--10----------10--|
G|------------------------------11--|
D|----------------------0-----------|
A|------0---------------------------|
E|----------------------------------|
         A7                D
   It's time to mend your broken heart

E|--12--12--12--10--10--9--9--|
B|----------10--10--10--9--9--|
G|----------11----------------|
D|----------0-----------------|
A|----------------------------|
E|----------------------------|
           Dm
   Let no walls divide us now

E|------9------9---9--12------|
B|--12-----12--10---------10--|
G|------------------------9---|
D|----------------------------|
A|-------------0----------9---|
E|----------------------------|
                A           F#m
   Dry up the tears in your eyes

E|-------------9--10--7--|
B|------9--10--7------7--|
G|--11-------------------|
D|-----------------------|
A|-----------------------|
E|-------------7---------|
                Bm
   Nothing can stop us now

E|------------9--10--9--7--|
B|--7--9--10--9---------9--|
G|-------------------------|
D|-------------------------|
A|------------7---------7--|
E|------------0------------|
                  E         
   I'll give you all that I have


[Chorus]

E|--9--7—10--9--9---|
B|------------------|
G|------------------|
D|------------------|
A|--------0---------|
E|------------------|      
          E
   Be my lady

E|--12--10--10--9--9----------|
B|--------------------12--12--|
G|----------------------------|
D|----------------------------|
A|----------------------------|
E|----------0-----------------|
            Em                   A7
   Let the sunshine through your heart

E|--------------12--10------|
B|--10--12--10----------10--|
G|----------------------11--|
D|--------------0-----------|
A|--------------------------|
E|--------------------------|
                D
   And make a brand new start

E|--12--12--12--10--10--9--9--|
B|----------10--10--10--9--9--|
G|----------11----------------|
D|----------0-----------------|
A|----------------------------|
E|----------------------------|
             Dm
   Stay with me each night and day

E|--9------9---9--12------|
B|-----12--10---------10--|
G|--------------------9---|
D|------------------------|
A|---------0----------9---|
E|------------------------|
            A              F#m
   Through the rest of my life

E|-------------9--10--7--|
B|------9--10--7------7--|
G|--11-------------------|
D|-----------------------|
A|-----------------------|
E|-------------7---------|
                Bm
   Just like a work of art

E|------------7---------7--7--5--|
B|--7--9--10--9--10--9--------5--|
G|----------------------------6--|
D|-------------------------------|
A|------------7------------------|
E|-------------------------5-----|
                 E            A  
   My love will last until forever


[Outro]

E|-------------9--7--7--|
B|------9--10--7-----7--|
G|--11------------------|
D|----------------------|
A|----------------------|
E|-------------7--------|
                 Bm
   Just like a work of art

E|------------7--10--10--12--|
B|--7--9--10--9--------------|
G|---------------------------|
D|---------------------------|
A|------------7--------------|
E|---------------------------|
                  E pause A
   My love will last   forever 

            
Submit corrections

↑ Back to top | Tablatures and chords for acoustic guitar and electric guitar, ukulele, drums are parodies/interpretations of the original songs. You may use it for private study, scholarship, research or language learning purposes only