Home » M » Martin Luther »

Martin Luther - A Mighty Fortress Is Our God Tabs

Artists:  A B C D E F G H I J K L M N O P Q R S T U V W X Y Z # 

A Mighty Fortress Is Our God Tabs

(ver. 1) Click to play this song!
Martin Luther
 Rating:
2.9/5 (27 votes)
                e|---------------------------------------------------------------------------|
B|-1--1--1-------0---1----------1--0---------------------1---1--1------0-1---|
G|----------0-2--0-------2---0--------2---0--2--------------------0-2--------|
D|-2-----2--0-0----------0---------2------2--2--3--2-0---2------2-0-0--0-----|
A|----3--------------3-----3-2--3-----0---------5--3-2-3-----3-----------3---|
E|---------------------------------------------------------------------------|
   A mighty fortress is our God a bulwark never failing our helper He amid 
e|---------------------------------------------------------------------------|
B|-----------1---0-----------------------------------------------------------|
G|---2---0----------2---0----2--------------0-----2---0-------0--------0---0-|
D|---0-----------2------2----2-3-2-0--------2-----2---0--4-------------0---2-|
A|-------2---3------0----------5-3-2-3--3----------------5----2---3----------|
E|---------------------------------------------------------------------------|
   the flood of mortal ills prevailing for still our ancient foe doth seek to 
e|---------------------------------------------------------------------------|
B|------0---1---0----1----0--------------------------------------------1-----|
G|--2--------------------------2---2----0----2----2-----0---2----------------|
D|------0-------2----2----2----2---0--------------3-----2---2--3---2---3-----|
A|--3-------3---------------------------2----3-----------------5---2---------|
E|---------------------------------------------------------------------------|
   work us woe his craft and power are great and armed with cruel hate on 
e|---------------------------------------------------------------------------|
B|---0-----------------------------------------------------------------------|
G|-------2---0---2-----------------------------------------------------------|
D|---3-------0---2--3-2-0----------------------------------------------------|
A|-------3----------5-3-2-3--------------------------------------------------|
E|---------------------------------------------------------------------------|
   earth is not his equal            
Submit corrections

↑ Back to top | Tablatures and chords for acoustic guitar and electric guitar, ukulele, drums are parodies/interpretations of the original songs. You may use it for private study, scholarship, research or language learning purposes only