Home » M » Martina Mcbride »

Martina Mcbride - Wrong Again Tabs

Artists:  A B C D E F G H I J K L M N O P Q R S T U V W X Y Z # 

Wrong Again Tabs

(ver. 1) Click to play this song!
Martina Mcbride
Wrong Again - Solo
Martina McBride

-----------------------------------------------------------------------------------------------------
-----15b-15-(15r)p13-15--15b--13-(13)\---12br-10-12-13br-13p12-10\8--8-6-------------------10---12b--
--12-----------------------------------9---------------------------------7/9-9\7p5h7-7\-/9----9------
-----------------------------------------------------------------------------------------------------
-----------------------------------------------------------------------------------------------------
-----------------------------------------------------------------------------------------------------
                                    A.H
--10-12-----------------------7br-5--5------------
--------12br-10-----------------------------------
--------------------------------------------------
--------------------------------------------------
--------------------------------------------------
--------------------------------------------------
            
Submit corrections

↑ Back to top | Tablatures and chords for acoustic guitar and electric guitar, ukulele, drums are parodies/interpretations of the original songs. You may use it for private study, scholarship, research or language learning purposes only