Home » M » Martina Mcbride »

Martina Mcbride - My Valentine Tabs

Artists:  A B C D E F G H I J K L M N O P Q R S T U V W X Y Z # 

My Valentine Tabs

(ver. 1) Click to play this song!
Martina Mcbride
E|---------8--7--8--10--8--------7--8--10--12--8--8------7--8---|
B|---------8---------------5-------------------------10---------|
G|------9--9------------------5---------------------------------|
D|--10------------------------------------------------------10--|
A|----------------------0------------------8--------------------|
E|--------------------------------------------------------------|
Intro: C - Am - F - G


E|--------------------------------------------------1--|
B|-----------1--0--1--3--1--------0--1--3--------------|
G|--------0--------------------2-----------2-----------|
D|-----2--------------------2--------------------3-----|
A|--3-----------------2--0--------------------3--------|
E|-----------------------------------------1-----------|
C                  Am                 F
  If there were no words, no way to speak


E|-----------------------|
B|-----------------------|
G|--2--0--0-----0-----0--|
D|-----------3-----2-----|
A|--------------3--------|
E|--3--------------------|
 G
 I would still hear you


E|--------------------------------0--------------|
B|--1--0--1--3--1--------0--1--3-----1--1--------|
G|--------------------2--------------------------|
D|-----------------2--------------------------3--|
A|-----------2--0--------------------------3-----|
E|--------------------------------1--------------|
C                  Am                F
  If there were no tears, no way to feel inside


E|-----------------|
B|--------------0--|
G|--2--2--0--2-----|
D|-----------------|
A|-----------------|
E|-----3-----------|
    G
I'd still feel for you


E|-----3--------3--3--3/5--3--1--0-----3--------|
B|-----0-------------------1--------3--0--------|
G|--0-------------------------------------------|
D|-----------2-------------------------------2--|
A|--------2-------------------------------2-----|
E|-----0-------------------1-----3-----0--------|
    Em           F     G        Em
And even if the sun refused to shine


E|--3--3--3--3/5--3--1--0----------------------|
B|----------------1--------3--3p1--1-----------|
G|---------------------------------------------|
D|------------------------------------------3--|
A|---------------------------------------3-----|
E|----------------1-----3-----1-------1--------|
           F        G       F
Even if romance ran out of rhyme,


E|--------0--1--0-----0-----0--5--3-------------------1--|
B|--1--3--0--------3-----1-----3-----3p1--1-----------1--|
G|--------1----------------------------------------2--2--|
D|--------2-------------------------------------3--------|
A|--------2--------------0-------------------3-----------|
E|--------0--------------------3-----1-------------------|
            E                   Am       G      F
You would still have my heart until the end of time


E|-----------0--0--1----------------------------|
B|--------------------3--------3--1--0--3p1--1--|
G|--2--0----------------------------------------|
D|--------2-----------------0-------------------|
A|-----3-----------------2--------------3-------|
E|--------------------3-------------------------|
        C              G             C
You're all i need, my love, my valentine


(Repeat Intro)


E|--------------------------------|
B|-----------1--0--1--3--1--------|
G|--------0--------------------2--|
D|-----2--------------------2-----|
A|--3-----------------2--0--------|
E|--------------------------------|
C           Am
  All of my life


E|-----------0--------|
B|--0--1--3-----1--1--|
G|--------------------|
D|--------------------|
A|--------------------|
E|-----------1--------|
             F
I have been waiting for


E|-----------------------|
B|-----------------------|
G|--2--0--0-----0-----0--|
D|-----------3-----2-----|
A|--------------3--------|
E|--3--------------------|
G               C
all you give to me


E|--------------------------------0--------3/5--5--3--3--|
B|--1--0--1--3--1--------0--1--3-----1--1-------3--------|
G|--------------------2----------------------------------|
D|-----------------2-------------------------------------|
A|-----------2--0----------------------------------------|
E|--------------------------------1-------------3--------|
                 Am                 F             G
You've opened my eyes and shown me how to love unselfishly


E|-----3--------3--3--3/5--3--1--0-----3--------|
B|-----0-------------------1--------3--0--------|
G|--0-------------------------------------------|
D|-----------2-------------------------------2--|
A|--------2-------------------------------2-----|
E|-----0-------------------1-----3-----0--------|
      Em                F        G       Em
I've dreamed of this a thousand times before


E|--3--3--3--3/5--3--1--0----------------------|
B|----------------1--------3--3p1--1-----------|
G|---------------------------------------------|
D|------------------------------------------3--|
A|---------------------------------------3-----|
E|----------------1-----3-----1-------1--------|
          F                G        F
  In my dreams I couldn't love you more


E|--------0--1--0-----0-----0--5--3-------------------1--|
B|--1--3--0--------3-----1-----3-----3p1--1-----------1--|
G|--------1----------------------------------------2--2--|
D|--------2-------------------------------------3--------|
A|--------2--------------0-------------------3-----------|
E|--------0--------------------3-----1-------------------|
        E                  Am       G      F
I will give you my heart until the end of time


E|-----------0--0--1----------------------------|
B|--------------------3--------3--1--0--3p1--1--|
G|--2--0----------------------------------------|
D|--------2-----------------0-------------------|
A|-----3-----------------2--------------3-------|
E|--------------------3-------------------------|
        C              G             C
You're all I need, my love, my valentine

Instrumental:
E|--------------------------------0--------------------------0--|
B|-----------1--0--1--3--1-----------3--1--0--------0--1--3-----|
G|--------0--------------------2--------------2--2--------------|
D|-----2--------------------2-----------------------------------|
A|--3-----------------2--0--------------------------------------|
E|-----------------------------------------1-----------3--------|

E|--------------------------------0--------5--3p1--3-----3--|
B|-----------1--0--1--3--1-----------3--1----------------3--|
G|--------0--------------------2-------------------------4--|
D|-----2--------------------2----------------------------5--|
A|--3-----------------2--0----------------------------5-----|
E|-----------------------------------------1-------3--------|
C - Am - F - G (2x)


E|-----3--------3--3--3/5--3--1--0-----3--------|
B|-----0-------------------1--------3--0--------|
G|--0-------------------------------------------|
D|-----------2-------------------------------2--|
A|--------2-------------------------------2-----|
E|-----0-------------------1-----3-----0--------|
    Em           F     G         Em
And even if the sun refused to shine,


E|--3--3--3--3/5--3--1--0----------------------|
B|----------------1--------3--3p1--1-----------|
G|---------------------------------------------|
D|------------------------------------------3--|
A|---------------------------------------3-----|
E|----------------1-----3-----1-------1--------|
        F            G      F
Even if romance ran out of rhyme,


E|--------0--1--0-----0-----0--5--3-------------------1--|
B|--1--3--0--------3-----1-----3-----3p1--1-----------1--|
G|--------1----------------------------------------2--2--|
D|--------2-------------------------------------3--------|
A|--------2--------------0-------------------3-----------|
E|--------0--------------------3-----1-------------------|
            E                   Am       G      F
You would still have my heart until the end of time


E|-----------0--0--1-----------------------------------------1--|
B|--------------------3--------3--1--0--1--------------------1--|
G|--2--0--------------------------------------2-----------2--2--|
D|--------2-----------------0--------------2-----------3--------|
A|-----3-----------------2--------------0-----------3-----------|
E|--------------------3--------------------------1--------------|
        C             G            Am    F
'cause all i need is you, my valentine, ohh


E|-----------0--0--1----------------------------|
B|--------------------3--------3--1--0--3p1--1--|
G|--2--0----------------------------------------|
D|--------2-----------------0-------------------|
A|-----3-----------------2--------------3-------|
E|--------------------3-------------------------|
       C               G             C
You're all i need, my love, my valentine

(Repeat Intro)            
Submit corrections

↑ Back to top | Tablatures and chords for acoustic guitar and electric guitar, ukulele, drums are parodies/interpretations of the original songs. You may use it for private study, scholarship, research or language learning purposes only