Home » M » Martha And The Vandellas »

Martha And The Vandellas - Dancing In The Streets Tabs

Artists:  A B C D E F G H I J K L M N O P Q R S T U V W X Y Z # 

Dancing In The Streets Tabs

(ver. 1) Click to play this song!
Martha And The Vandellas
 Intro
  Q=128
             E9      E7       E9      E7
 4/4
  Gtr I
  W          E E E E E E Q    E E E E E E Q
|----------|----------------|----------------|
|----------|-7-x-7-x-5-5-5--|-7-x-7-x-5-5-5--|
|----------|-7-x-7-x-7-7-7--|-7-x-7-x-7-7-7--|
|----------|-6-x-6-x-6-6-6--|-6-x-6-x-6-6-6--|
|----------|-7-x-7-x-7-7-7--|-7-x-7-x-7-7-7--|
|----------|----------------|----------------|


  E9      E7       E9      E7
  E E E E E E Q    E E E E E E Q
|----------------|----------------||
|-7-x-7-x-5-5-5--|-7-x-7-x-5-5-5--||
|-7-x-7-x-7-7-7--|-7-x-7-x-7-7-7--||
|-6-x-6-x-6-6-6--|-6-x-6-x-6-6-6--||
|-7-x-7-x-7-7-7--|-7-x-7-x-7-7-7--||
|----------------|----------------||


 1st & 2nd Verses
  $
  E9      E7       E9      E7       E9      E7       E9      E7
  E E E E E E Q    E E E E E E Q    E E E E E E Q    E E E E E E Q
|----------------|----------------|----------------|-----------------|
|-7-x-7-x-5-5-5--|-7-x-7-x-5-5-5--|-7-x-7-x-5-5-5--|-7-x-7-x-5-5-5---|
|-7-x-7-x-7-7-7--|-7-x-7-x-7-7-7--|-7-x-7-x-7-7-7--|-7-x-7-x-7-7-7---|
|-6-x-6-x-6-6-6--|-6-x-6-x-6-6-6--|-6-x-6-x-6-6-6--|-6-x-6-x-6-6-6---|
|-7-x-7-x-7-7-7--|-7-x-7-x-7-7-7--|-7-x-7-x-7-7-7--|-7-x-7-x-7-7-7---|
|----------------|----------------|----------------|-----------------|


  E9      E7       E9      E7       E9      E7       E9      E7
  E E E E E E Q    E E E E E E Q    E E E E E E Q    E E E E E E Q
|----------------|----------------|----------------|-----------------|
|-7-x-7-x-5-5-5--|-7-x-7-x-5-5-5--|-7-x-7-x-5-5-5--|-7-x-7-x-5-5-5---|
|-7-x-7-x-7-7-7--|-7-x-7-x-7-7-7--|-7-x-7-x-7-7-7--|-7-x-7-x-7-7-7---|
|-6-x-6-x-6-6-6--|-6-x-6-x-6-6-6--|-6-x-6-x-6-6-6--|-6-x-6-x-6-6-6---|
|-7-x-7-x-7-7-7--|-7-x-7-x-7-7-7--|-7-x-7-x-7-7-7--|-7-x-7-x-7-7-7---|
|----------------|----------------|----------------|-----------------|


  E9      E7       E9      E7       E9      E7       E9      E7
  E E E E E E Q    E E E E E E Q    E E E E E E Q    E E E E E E Q
|----------------|----------------|----------------|-----------------|
|-7-x-7-x-5-5-5--|-7-x-7-x-5-5-5--|-7-x-7-x-5-5-5--|-7-x-7-x-5-5-5---|
|-7-x-7-x-7-7-7--|-7-x-7-x-7-7-7--|-7-x-7-x-7-7-7--|-7-x-7-x-7-7-7---|
|-6-x-6-x-6-6-6--|-6-x-6-x-6-6-6--|-6-x-6-x-6-6-6--|-6-x-6-x-6-6-6---|
|-7-x-7-x-7-7-7--|-7-x-7-x-7-7-7--|-7-x-7-x-7-7-7--|-7-x-7-x-7-7-7---|
|----------------|----------------|----------------|-----------------|


  E9      E7       E9      E7       A
  E E E E E E Q    E E E E E E Q    E E E E E E E E   E E E E E E E E
|----------------|----------------|-5-x-5-x-5-x-5-x-|-5-x-5-x-5-x-5-x--|
|-7-x-7-x-5-5-5--|-7-x-7-x-5-5-5--|-5-x-5-x-5-x-5-x-|-5-x-5-x-5-x-5-x--|
|-7-x-7-x-7-7-7--|-7-x-7-x-7-7-7--|-6-x-6-x-6-x-6-x-|-6-x-6-x-6-x-6-x--|
|-6-x-6-x-6-6-6--|-6-x-6-x-6-6-6--|-7-x-7-x-7-x-7-x-|-7-x-7-x-7-x-7-x--|
|-7-x-7-x-7-7-7--|-7-x-7-x-7-7-7--|-----------------|------------------|
|----------------|----------------|-----------------|------------------|


                                      E9      E7       E9      E7
  E E E E E E E E   E E E E E E E E   E E E E E E Q    E E E E E E Q
|-5-x-5-x-5-x-5-x-|-5-x-5-x-5-x-5-x-|----------------|-----------------|
|-5-x-5-x-5-x-5-x-|-5-x-5-x-5-x-5-x-|-7-x-7-x-5-5-5--|-7-x-7-x-5-5-5---|
|-6-x-6-x-6-x-6-x-|-6-x-6-x-6-x-6-x-|-7-x-7-x-7-7-7--|-7-x-7-x-7-7-7---|
|-7-x-7-x-7-x-7-x-|-7-x-7-x-7-x-7-x-|-6-x-6-x-6-6-6--|-6-x-6-x-6-6-6---|
|-----------------|-----------------|-7-x-7-x-7-7-7--|-7-x-7-x-7-7-7---|
|-----------------|-----------------|----------------|-----------------|


                                    Chorus
  E9      E7       E9      E7        G#7
  E E E E E E Q    E E E E E E Q     E E E E E E E E   E E E E E E E E
|----------------|----------------||-4-x-4-x-4-x-4-x-|-4-x-4-x-4-x-4-x--|
|-7-x-7-x-5-5-5--|-7-x-7-x-5-5-5--||-4-x-4-x-4-x-4-x-|-4-x-4-x-4-x-4-x--|
|-7-x-7-x-7-7-7--|-7-x-7-x-7-7-7--||-5-x-5-x-5-x-5-x-|-5-x-5-x-5-x-5-x--|
|-6-x-6-x-6-6-6--|-6-x-6-x-6-6-6--||-4-x-4-x-4-x-4-x-|-4-x-4-x-4-x-4-x--|
|-7-x-7-x-7-7-7--|-7-x-7-x-7-7-7--||-6-x-6-x-6-x-6-x-|-6-x-6-x-6-x-6-x--|
|----------------|----------------||-4-x-4-x-4-x-4-x-|-4-x-4-x-4-x-4-x--|


  C#m                                 F#m
  E E E E E E E E   E E E E E E E E   E E E E E E E E   E E E E E E E E
|-4-x-4-x-4-x-4-x-|-4-x-4-x-4-x-4-x-|-2-x-2-x-2-x-2-x-|-2-x-2-x-2-x-2-x--|
|-5-x-5-x-5-x-5-x-|-5-x-5-x-5-x-5-x-|-2-x-2-x-2-x-2-x-|-2-x-2-x-2-x-2-x--|
|-6-x-6-x-6-x-6-x-|-6-x-6-x-6-x-6-x-|-2-x-2-x-2-x-2-x-|-2-x-2-x-2-x-2-x--|
|-6-x-6-x-6-x-6-x-|-6-x-6-x-6-x-6-x-|-4-x-4-x-4-x-4-x-|-4-x-4-x-4-x-4-x--|
|-4-x-4-x-4-x-4-x-|-4-x-4-x-4-x-4-x-|-4-x-4-x-4-x-4-x-|-4-x-4-x-4-x-4-x--|
|-----------------|-----------------|-2-x-2-x-2-x-2-x-|-2-x-2-x-2-x-2-x--|


           To Coda
  B7sus4             B7                E9      E7       E9      E7
  E E E E E E E E    E E E E E E E E   E E E E E E Q    E E E E E E Q
|-2-x-2-x-2-x-2-x--|-2-x-2-x-2-x-2-x-|----------------|----------------|
|-5-x-5-x-5-x-5-x--|-4-x-4-x-4-x-4-x-|-7-x-7-x-5-5-5--|-7-x-7-x-5-5-5--|
|-2-x-2-x-2-x-2-x--|-2-x-2-x-2-x-2-x-|-7-x-7-x-7-7-7--|-7-x-7-x-7-7-7--|
|-4-x-4-x-4-x-4-x--|-4-x-4-x-4-x-4-x-|-6-x-6-x-6-6-6--|-6-x-6-x-6-6-6--|
|-2-x-2-x-2-x-2-x--|-2-x-2-x-2-x-2-x-|-7-x-7-x-7-7-7--|-7-x-7-x-7-7-7--|
|------------------|-----------------|----------------|----------------|


                     D.S. al Coda &
  E9      E7       E9      E7        B7                E9      E7
  E E E E E E Q    E E E E E E Q     E E E E E E E E   E E E E E E Q
|----------------|----------------||-2-x-2-x-2-x-2-x-|-----------------|
|-7-x-7-x-5-5-5--|-7-x-7-x-5-5-5--||-4-x-4-x-4-x-4-x-|-7-x-7-x-5-5-5---|
|-7-x-7-x-7-7-7--|-7-x-7-x-7-7-7--||-2-x-2-x-2-x-2-x-|-7-x-7-x-7-7-7---|
|-6-x-6-x-6-6-6--|-6-x-6-x-6-6-6--||-4-x-4-x-4-x-4-x-|-6-x-6-x-6-6-6---|
|-7-x-7-x-7-7-7--|-7-x-7-x-7-7-7--||-2-x-2-x-2-x-2-x-|-7-x-7-x-7-7-7---|
|----------------|----------------||-----------------|-----------------|


                                                     Outro
  E9      E7       E9      E7       E9      E7        E9      E7
  E E E E E E Q    E E E E E E Q    E E E E E E Q     E E E E E E Q
|----------------|----------------|----------------||-----------------|
|-7-x-7-x-5-5-5--|-7-x-7-x-5-5-5--|-7-x-7-x-5-5-5--||-7-x-7-x-5-5-5---|
|-7-x-7-x-7-7-7--|-7-x-7-x-7-7-7--|-7-x-7-x-7-7-7--||-7-x-7-x-7-7-7---|
|-6-x-6-x-6-6-6--|-6-x-6-x-6-6-6--|-6-x-6-x-6-6-6--||-6-x-6-x-6-6-6---|
|-7-x-7-x-7-7-7--|-7-x-7-x-7-7-7--|-7-x-7-x-7-7-7--||-7-x-7-x-7-7-7---|
|----------------|----------------|----------------||-----------------|


    E9      E7       E9      E7
    E E E E E E Q    E E E E E E Q
||-----------------|----------------|
||o-7-x-7-x-5-5-5--|-7-x-7-x-5-5-5--|
||--7-x-7-x-7-7-7--|-7-x-7-x-7-7-7--|
||--6-x-6-x-6-6-6--|-6-x-6-x-6-6-6--|
||o-7-x-7-x-7-7-7--|-7-x-7-x-7-7-7--|
||-----------------|----------------|


  E9      E7       E9      E7         E9      E7
  E E E E E E Q    E E E E E E Q      E E E E E E Q
|----------------|-----------------||----------------*|
|-7-x-7-x-5-5-5--|-7-x-7-x-5-5-5--o||-7-x-7-x-5-5-5--*|
|-7-x-7-x-7-7-7--|-7-x-7-x-7-7-7---||-7-x-7-x-7-7-7--*|
|-6-x-6-x-6-6-6--|-6-x-6-x-6-6-6---||-6-x-6-x-6-6-6--*|
|-7-x-7-x-7-7-7--|-7-x-7-x-7-7-7--o||-7-x-7-x-7-7-7--*|
|----------------|-----------------||----------------*|            
Submit corrections

↑ Back to top | Tablatures and chords for acoustic guitar and electric guitar, ukulele, drums are parodies/interpretations of the original songs. You may use it for private study, scholarship, research or language learning purposes only