Home » M » Marshall Tucker Band »

Marshall Tucker Band - Fire On The Mountain Tabs

Artists:  A B C D E F G H I J K L M N O P Q R S T U V W X Y Z # 

Fire On The Mountain Tabs

(ver. 3) Click to play this song!
Marshall Tucker Band
(Fullsion)
This is tabbed out for two guitars in some parts. Hope its not confusing

Chords:
 
     Em      C       Am       G        D
E-----------------------------3--------2-------
D-----------1--------1----------------3-------
G---------------------2----------------2-------
D----2------2--------2------------------------
A-----2------3----------------2----------------
E-----------------------------3----------------


Intro:

   G                                      D
E-----19---19----19---19-----19---19-----------
D---------------------------------------17^19-
G-----19---19----19---19^21--19---19-----------
|                                              |
E------7----7-----7----7------7----7-----------
D----------------------------------------5^7--
G------7----7-----7----7^9----7----7-----------


                                        Am
E--17-----------------------------17-----------
D-----17^19--(17)----15---17^19--------15^17--
G----------------------------------------------
|                                              |
E---5------------------------------5-----------
D------5^7----(5)-----3----5^7----------3^5---
G----------------------------------------------


                                   C
E-----------------------15---15---15-15--15-15-
D-15^17--(15)--15^17---15---15---15^17--15^17-
G----------------------------------------------
|                                              |
E------------------------3----3-----3-3---3-3--
D--3^5---(3)----3^5-----3----3-----3^5---3^5--
G----------------------------------------------


                      G
E--15-15--15-15------15-----(15)\(10)----------
D-15^17--15^17------15-----(15)\(10)^12-------
G----------------------------------------------
|                                              |
E---3-3----3-3--------3-------3----------------
D--3^5----3^5--------3-------3----------------
G----------------------------------------------
D---------------------------------------------
A----------------------------------------------
E-----------------------------------------3--2-


  Em (Rhythm Pattern Throughout)
E------------------------------------------------
D-------------------8------------8--------------
G-----------7-9--9-------7--9--9------7--9--9----
|                                                |
E-------0--0----------0--0---------0--0----------
D------0--0----------0--0---------0--0----------
G-------0--0----------0--0---------0--0----------
D-------------0--2-----------------------0--2---
A------------------------------------------------
E--0--------------------------0------------------



E------------------------------------------------
D-8---------------------------------------------
G-----7---7/9-----------------7-------7/9--------
|                                                |
E--0--0--------0---0----------0--0---------0--0--
D-0--0--------0---0----------0--0---------0--0--
G--0--0--------0---0----------0--0---------0--0--
D---------------------0--2----------------------
A------------------------------------------------
E---------0---------------------------0----------


                  C                       
E------------------------------------------------
D---------------13-----------------(13)/(17)----
G----------------12-----------------(12)/(17)----
|                                                |
E---------0--0--------0--0-----------0--0--------
D--------0--0--------1--1-----------1--1--------
G---------0--0--------0--0-----------0--0--------
D-0--2-----------------------0--2---------------
A-----------------3--------------------------3---
E------------------------------------------------



E----------------------20------------------------
D-----------------------------------------------
G----------------------19^21---------------(19)--
|                                                |
E--0--0----------0--0--------0--0----------0--0--
D-1--1----------1--1--------1--1----------1--1--
G--0--0----------0--0--------0--0----------0--0--
D--------0--2----------------------0--2---------
A-----------------------3------------------------
E------------------------------------------------



E------------------------------------------------
D-----------------------------------------------
G--(19)\(14)-------------------------------------
|                                                |
E--0---0---------0---0---------------0---0-------
D-1---1---------1---1---------------1---1-------
G--0---0---------0---0---------------0---0-------
D-------------------------0--2------------------
A----------3-------------------------------------
E------------------------------------------------


  Em (Rhythm pattern)
E------------------------------------------------
D----------8-----------8-----------8------------
G--7--9--9-----7--9--9-----7--9--9-----7--9--9---
D-----------------------------------------------
A------------------------------------------------
E------------------------------------------------


                     C
E---------------------------------------------20-
D-8-----------------3--5--8--8-10--8--15-17--17-
G-----7--7/9--(9)\7--4--5--9--9-10--9--16-17-----
D-----------------------------------------------
A------------------------------------------------
E------------------------------------------------


Em                          C
Took my family away from my Carolina home

Em                             C
Had dreams about the West and started to roam

Em                    C 
Six long months on a dust covered trail

Em        
They say heaven's at the end

        C
But so far it's been hell 

           G
And there's fire on the mountain

 D
Lightning in the air

Am
Gold in them hills

          C              
And it's waiting for me 

 Em              C
There (Riff #1 Played Twice)
E------------------------------------------------
D-----------------------------------------------
G-4---2---0-------------------------0----2---4---
D-----------4---2----2----2---4-----------------
A------------------------------------------------
E------------------------------------------------
|                                                |
E------------------------------------------------
D-----------------------------------------------
G-4---2-----------------------------0----2---4---
D------2/4--2-------------2---4-----------------
A----------------3----3--------------------------
E------------------------------------------------


   Em              C
E------------------------------------------------
D-----------------------------------------------
G--4--2---0--------------------0---2----2---4----
D-------------4---2----2--4---------------------
A------------------------------------------------
E------------------------------------------------
|                                                |
E------------------------------------------------
D-----------------------------------------------
G--4--2------------------------0---2----2---4----
D------2/4----2--------2--4---------------------
A------------------3-----------------------------
E------------------------------------------------


Em                          C
We were diggin' and siftin' from five to five

Em                           C
Sellin' everything we found just to stay alive

Em                          C
Gold flowed free like the whiskey in the bars

Em                 
Sinnin' was the big thing lord 

     C
And Satan was the star

             G
And there's fire on the mountain

 D
Lightning in the air

Am
Gold in them hills 

          C              Em  (With Riff #1) C
And it's waiting for me there


 Em
E------------------------------------------------
D---------------------------------------------8-
G-------7---9---7--9--9-----7--9--9-- 
            
Submit corrections

↑ Back to top | Tablatures and chords for acoustic guitar and electric guitar, ukulele, drums are parodies/interpretations of the original songs. You may use it for private study, scholarship, research or language learning purposes only