» » »

Marques Houston - Sunset Tabs

Artists:  A B C D E F G H I J K L M N O P Q R S T U V W X Y Z # 

Sunset Tabs

(ver. 1) Click to play this song!
Marques Houston
 Rating:
4.2/5 (5 votes)

 Sunset lessons Tabs too difficult? Try these video lessons and learn fast
 
                -------------------------------------------------------------------------------
-------------------------------------------------------------------------------

Tuning: Standard (eBGDAE)

Note: ^ - Guitar slap. 

Chord progression used throughout the entire song:
e|-5----x--8p5--x--33--x--3~-3--x--33--x--3~-3--x--00--x--0~-0--x-|
B|-6h8--x--6----x--33--x--3~-3--x--55--x--5~-5--x--11--x--1~-1--x-|
G|-5----x--5----x--44--x--4~-4--x--44--x--4~-4--x--00--x--0~-0--x-|
D|-7----x--7----x--55--x--3~-3--x--55--x--5~-5--x--22--x--2~-2--x-|
A|-5----x--5----x--55--x--5~-5--x--33--x--3~-3--x--00--x--0~-0--x-|
E|-x----x--x----x--33--x--3--3--x--xx--x--x--x--x--xx--x--x--x--x-|
        ^       ^      ^        ^      ^        ^      ^        ^

e|-5----x--8p5--x--33--x--3~-3--x--3~-3--x--3~-3--x--3~-3--x--3~-3--x-|
B|-6h8--x--6----x--33--x--3~-3--x--5~-5--x--5~-5--x--5~-5--x--5~-5--x-|
G|-5----x--5----x--44--x--4~-4--x--4~-4--x--4~-4--x--4~-4--x--4~-4--x-|
D|-7----x--7----x--55--x--3~-3--x--5~-5--x--5~-5--x--5~-5--x--5~-5--x-|
A|-5----x--5----x--55--x--5~-5--x--3~-3--x--3~-3--x--3~-3--x--3~-3--x-|
E|-x----x--x----x--33--x--3--3--x--x--x--x--x--x--x--x--x--x--x--x--x-|
        ^       ^      ^        ^        ^        ^        ^        ^

Little ditty before the chorus:
e|-12121212--12121212\-|
B|-10101010--10101010\-|
G|-10101010--10101010\-|
D|---------------------|
A|---------------------|
E|---------------------|  (those are 10's and 12's)

and that's it.  Real easy song once you get the hang of it.  Enjoy!

************************************

| /   slide up
| \   slide down
| h   hammer-on
| p   pull-off
| ~   vibrato
| +   harmonic
| x   Mute note
| b   Bend
| pb  Pre-bend
| br  Bend release
| pbr Pre-bend release
| brb Bend release bend

************************************
            
Submit corrections


        Sunset lessons Hard to play? Try these video lessons and learn fast Sunset lessons
        
↑ Back to top | Tablatures and chords for acoustic guitar and electric guitar, ukulele, drums are parodies/interpretations of the original songs. You may use it for private study, scholarship, research or language learning purposes only