Home » M » Maroon 5 »

Maroon 5 - This Summers Gonna Hurt Tabs

Artists:  A B C D E F G H I J K L M N O P Q R S T U V W X Y Z # 

This Summers Gonna Hurt Tabs

(ver. 1) Click to play this song!
Maroon 5
 Rating:
3.6/5 (28 votes)
                Tuning: standard

chorus 1 and 2

e|--8-8--8-8--8-8--8-8--8-8--8-8--8-8--8-8--7-7--7-7--7-7--7-7--7-7--7-7--7-7--7-7--------|
B|--8-8--8-8--8-8--8-8--8-8--8-8--8-8--8-8--8-8--8-8--8-8--8-8--8-8--8-8--8-8--8-8--------| x2
G|--9-9--9-9--9-9--9-9--9-9--9-9--9-9--9-9--9-9--9-9--9-9--9-9--9-9--9-9--9-9--9-9--------|
D|----------------------------------------------------------------------------------------|
A|----------------------------------------------------------------------------------------|
E|----------------------------------------------------------------------------------------|

after chorus 2

e|--5-5--5-5--5-5--5-5--5-5--5-5--5-5--5-5--7-7--7-7--7-7--7-7--7-7--7-7--7-7--7-7--------|
B|--5-5--5-5--5-5--5-5--5-5--5-5--5-5--5-5--8-8--8-8--8-8--8-8--8-8--8-8--8-8--8-8--------|
G|--5-5--5-5--5-5--5-5--5-5--5-5--5-5--5-5--9-9--9-9--9-9--9-9--9-9--9-9--9-9--9-9--------|
D|----------------------------------------------------------------------------------------|
A|----------------------------------------------------------------------------------------|
E|----------------------------------------------------------------------------------------|

chorus 3

e|--8-8--8-8--8-8--8-8--8-8--8-8--8-8--8-8--7-7--7-7--7-7--7-7--7-7--7-7--7-7--7-7--------|
B|--8-8--8-8--8-8--8-8--8-8--8-8--8-8--8-8--8-8--8-8--8-8--8-8--8-8--8-8--8-8--8-8--------| x4
G|--9-9--9-9--9-9--9-9--9-9--9-9--9-9--9-9--9-9--9-9--9-9--9-9--9-9--9-9--9-9--9-9--------|
D|----------------------------------------------------------------------------------------|
A|----------------------------------------------------------------------------------------|
E|----------------------------------------------------------------------------------------|            
Submit corrections

↑ Back to top | Tablatures and chords for acoustic guitar and electric guitar, ukulele, drums are parodies/interpretations of the original songs. You may use it for private study, scholarship, research or language learning purposes only