» » »

Maroon 5 - Take What You Can Tabs

Artists:  A B C D E F G H I J K L M N O P Q R S T U V W X Y Z # 

Take What You Can Tabs

(ver. 1) Click to play this song!
Maroon 5
 Rating:
4.3/5 (10 votes)

 Take What You Can  lessons Tabs too difficult? Try these video lessons and learn fast
 
                [Intro]
e|-x-x-----------------------------------------------------------------------|
B|-x-x-----------7-----7---7------7---7--------------------------------------|
G|-x-x-----------7-----7g9-7------7g9-7--7---7-----------7------7------7-----|
D|-x-x------7/9-----9--------9-----------7g9-7--------7;---------------------|
A|-x-x------------------------------------------9--7;-------(7)----(7)-------|
E|-x-x-15\7------------------------------------------------------------------|
                                                
e|---------------------------------------------------------------------------|
B|----------------------7^---10/12\10---10-------10--------------------------|
G|-----7--6h7p6;--------------9/11\9-----9--9b11-----9b11r9p7--9p7-----------|
D|---8-----------8--------------------------------------------------9--7g9p7-|
A|-9----------------9--------------------------------------------------------|
E|---------------------------------------------------------------------------|

e|---------------------------------------------------------------------------|
B|---------------------------------------------------------------------------|
G|----------7\6--------------------------------------------------------------|
D|------7h9------7-----9\----------------------------------------------------|
A|--7/9------------7/9-------------------------------------------------------|
E|---------------------------------------------------------------------------|
            
Submit corrections


        Take What You Can  lessons Hard to play? Try these video lessons and learn fast Take What You Can  lessons
        
↑ Back to top | Tablatures and chords for acoustic guitar and electric guitar, ukulele, drums are parodies/interpretations of the original songs. You may use it for private study, scholarship, research or language learning purposes only