» » »

Maroon 5 - Sugar Tabs

Artists:  A B C D E F G H I J K L M N O P Q R S T U V W X Y Z # 

Sugar Tabs

(ver. 1) Click to play this song!
Maroon 5
 Rating:
4.4/5 (14 votes)

 Sugar  lessons Tabs too difficult? Try these video lessons and learn fast
 
                [Intro]

e|-0~---------|-0~---------|-1~--------|-0~----------------------------------|
B|-1~---------|-1~---------|-1~--------|-1~----------------------------------|
G|-0~---------|-0~---------|-2~--------|-0~------------2h0-------------------|
D|------------|------------|-0--0--0~--|------------x------------------------|
A|------------|-0--0--0~---|-----------|-3--3--3~---x------------------------|
E|-1--1--1~---|------------|-----------|------------x------------------------|


[Verse] x2 

e|---------------------------------------|--------------------|--------------|
B|---3~---3-----1~--1----3~--3----1~--1--|--3~-3-1--2-2--1-3--|--3~-3---1~-1-|
G|---2~---2-----2~--2----2~--2----2~--2--|--2~-2-2--3-3--2-2--|--0~-0---0~-0-|
D|---3~---3-----3~--3----2~--2----2~--2--|-0---x----0-0--x----|--2~-2---2~-2-|
A|--------x---------x--0-----x--0-----x--|-----x---------x----|-3---x--3---x-|
E|-1------x--1------x--------x--------x--|--------------------|-----x------x-|

[Pre-Chorus] 

e|-----------0-0---0~-|------------0-0---0~-|----------0--------|----------------------|
B|--------------------|---------------------|------------3-1-1~-|-(1)-------/3---------|
G|---0h2~-------------|---0h2~--------------|---0h2-------------|--------------2--2----|
D|-------x-------x----|-------x--------x----|-0-----x-0----x----|--------------x-------|
A|-------x-------x----|-0-----x-0------x----|-------x------x----|--3--3-x-3----x-------|
E|-1-------1----------|---------------------|-------------------|-------x--------------|

e|-----------0-0---0~-|------------0-0---0~-|----------0--------|---------------8------|
B|--------------------|---------------------|------------3-1-1~-|-(1)------------------|
G|---0h2~-------------|---0h2~--------------|---0h2-------------|-----------/5---------|
D|-------x-------x----|-------x--------x----|-0-----x-0----x----|---------------x------|
A|-------x-------x----|-0-----x-0------x----|-------x------x----|--3--3-x-3-----x------|
E|-1-------1----------|---------------------|-------------------|-------x--------------|

[Chorus]

  (o)   (o) (o)   (o)   (o) (o)       (o)      (o)           (o)   (o)
  
e|-5-----------8-|-5-------------11b-|---10-10------10---8-|-(8)------------8-|
B|-5-------------|-5-----------------|---10-10----13-------|------------------|
G|-5-------------|-5-----------------|---10-10----10-------|------------/5----|
D|-3-3---3-----x-|-------------x-----|-0-----x--0------x---|----------------x-|
A|-----x-------x-|-0-0-x-0-----x-----|-------x---------x---|-------x--------x-|
E|-----x---------|-----x-------------|---------------------|--8--8-x-8--------|


  (o)   (o) (o)   (o)   (o) (o)       (o)      (o)           (o)   (o)
  
e|-5-----------8-|-5-------------11b-|---10-10------10---8-|-(8)------------------|
B|-5-------------|-5-----------------|---10-10----13-------|-----------------4\3--|
G|-5-------------|-5-----------------|---10-10----10-------|------------0-2-------|
D|-3-3---3-----x-|-------------x-----|-0-----x--0------x---|----------------------|
A|-----x-------x-|-0-0-x-0-----x-----|-------x---------x---|-------x------x-------|
E|-----x---------|-----x-------------|---------------------|--8--8-x-8----x-------|

   (o)     (o)            (o)     (o)           (o)     (o)           (o)

e|----------------------|---------------------|----------------------|---------------8-|
B|-(3)-3-3----1h3---4\3-|-(3)-3-3-----1---4/3-|-(3)-3-3-----1h3----4-|-----------------|
G|-----2----------------|-----0-0-------------|-----2----------------|----2---/5~ 5----|
D|-----3----------------|-----2-2-------------|--0----x--0-------x---|------x--------x-|
A|-------x--------x-----|--0----x--0---x------|-------x----------x---|-3----x--------x-|
E|--1----x--1-----x-----|-------x------x------|----------------------|-----------------|


  (o)   (o) (o)   (o)   (o) (o)       (o)      (o)           (o)   (o)
  
e|-5-----------8-|-5-------------11b-|---10-10------10---8-|-(8)------------|
B|-5-------------|-5-----------------|---10-10----13-------|----------------|
G|-5-------------|-5-----------------|---10-10----10-------|----------------|
D|-3-3---3-----x-|-------------x-----|-0-----x--0------x---|----------------|
A|-----x-------x-|-0-0-x-0-----x-----|-------x---------x---|-------x------x-|
E|-----x---------|-----x-------------|---------------------|--8--8-x-8\1--x-|

[Verse 2] x2 

e|---------------------------------------|--------------------|--------------|
B|---3~---3-----1~--1----3~--3----1~--1--|--3~-3-1--2-2--1-3--|--3~-3---1~-1-|
G|---2~---2-----2~--2----2~--2----2~--2--|--2~-2-2--3-3--2-2--|--0~-0---0~-0-|
D|---3~---3-----3~--3----2~--2----2~--2--|-0---x----0-0--x----|--2~-2---2~-2-|
A|--------x---------x--0-----x--0-----x--|-----x---------x----|-3---x--3---x-|
E|-1------x--1------x--------x--------x--|--------------------|-----x------x-|

[Pre-Chorus 2] 

e|-----------0-0---0~-|------------0-0---0~-|----------0--------|----------------------|
B|--------------------|---------------------|------------3-1-1~-|-(1)-------/3---------|
G|---0h2~-------------|---0h2~--------------|---0h2-------------|--------------2--2----|
D|-------x-------x----|-------x--------x----|-0-----x-0----x----|--------------x-------|
A|-------x-------x----|-0-----x-0------x----|-------x------x----|--3--3-x-3----x-------|
E|-1-------1----------|---------------------|-------------------|-------x--------------|

e|-----------0-0---0~-|------------0-0---0~-|----------0--------|---------------8------|
B|--------------------|---------------------|------------3-1-1~-|-(1)------------------|
G|---0h2~-------------|---0h2~--------------|---0h2-------------|-----------/5---------|
D|-------x-------x----|-------x--------x----|-0-----x-0----x----|---------------x------|
A|-------x-------x----|-0-----x-0------x----|-------x------x----|--3--3-x-3-----x------|
E|-1-------1----------|---------------------|-------------------|-------x--------------|

[Chorus 2]

  (o)   (o) (o)   (o)   (o) (o)       (o)      (o)           (o)   (o)
  
e|-5-----------8-|-5-------------11b-|---10-10------10---8-|-(8)------------8-|
B|-5-------------|-5-----------------|---10-10----13-------|------------------|
G|-5-------------|-5-----------------|---10-10----10-------|------------/5----|
D|-3-3---3-----x-|-------------x-----|-0-----x--0------x---|----------------x-|
A|-----x-------x-|-0-0-x-0-----x-----|-------x---------x---|-------x--------x-|
E|-----x---------|-----x-------------|---------------------|--8--8-x-8--------|


  (o)   (o) (o)   (o)   (o) (o)       (o)      (o)           (o)   (o)
  
e|-5-----------8-|-5-------------11b-|---10-10------10---8-|-(8)------------------|
B|-5-------------|-5-----------------|---10-10----13-------|-----------------4\3--|
G|-5-------------|-5-----------------|---10-10----10-------|------------0-2-------|
D|-3-3---3-----x-|-------------x-----|-0-----x--0------x---|----------------------|
A|-----x-------x-|-0-0-x-0-----x-----|-------x---------x---|-------x------x-------|
E|-----x---------|-----x-------------|---------------------|--8--8-x-8----x-------|

   (o)     (o)            (o)     (o)           (o)     (o)           (o)

e|----------------------|---------------------|----------------------|---------------8-|
B|-(3)-3-3----1h3---4\3-|-(3)-3-3-----1---4/3-|-(3)-3-3-----1h3----4-|-----------------|
G|-----2----------------|-----0-0-------------|-----2----------------|----2---/5~ 5----|
D|-----3----------------|-----2-2-------------|--0----x--0-------x---|------x--------x-|
A|-------x--------x-----|--0----x--0---x------|-------x----------x---|-3----x--------x-|
E|--1----x--1-----x-----|-------x------x------|----------------------|-----------------|


  (o)   (o) (o)   (o)   (o) (o)       (o)      (o)           (o)   (o)
  
e|-5-----------8-|-5-------------11b-|---10-10------10---8-|-(8)------------|
B|-5-------------|-5-----------------|---10-10----13-------|----------------|
G|-5-------------|-5-----------------|---10-10----10-------|----------------|
D|-3-3---3-----x-|-------------x-----|-0-----x--0------x---|----------------|
A|-----x-------x-|-0-0-x-0-----x-----|-------x---------x---|-------x------x-|
E|-----x---------|-----x-------------|---------------------|--8--8-x-8\1--x-|


[Bridge]

e|----------------|----------------|----------------|---------------|--3-3-3-3h0-0-|
B|----------------|----------------|----------------|---------------|--1-----------|
G|---0-0-0-0--0-0-|---0-0-0-0--0-0-|---0-0-0-0--0-0-|-0-0-0-0-0-0-0-|--0-----------|
D|-3--------------|----------------|-3--------------|-2-------------|--------------|
A|-3--------------|-3--------------|-5--------------|-3-------------|--------------|
E|-1--------------|-5--------------|----------------|---------------|-1------------|

e|--3-3-3-3h0-0-|--3-3-3-3h0-0-|------------------|-------------------|-----------------|
B|--1-----------|--1-----------|---3-3-3--3-3h1-1-|--------1----1---3-|-------1---1---3-|
G|--0-----------|--2-----------|------------------|----0h2----2---2---|---0h2---2---2---|
D|--------------|-0------------|------------------|-------------------|-----------------|
A|-0------------|--------------|-3----------------|-------------------|-0---------------|
E|--------------|--------------|------------------|--1----------------|-----------------|

e|-----------------|---------------8-|
B|-------1---1---1-|-1-1-1-1--1------|
G|---0h2---2---2---|-0-0-0-0--0------|
D|-0---------------|-2-2-2-2--2----x-|
A|-----------------|-3-3-3-3--3----x-|
E|-----------------|-----------------|


[Chorus 3]

  (o)   (o) (o)   (o)   (o) (o)       (o)      (o)           (o)   (o)
  
e|-5-----------8-|-5-------------11b-|---10-10------10---8-|-(8)------------8-|
B|-5-------------|-5-----------------|---10-10----13-------|------------------|
G|-5-------------|-5-----------------|---10-10----10-------|------------/5----|
D|-3-3---3-----x-|-------------x-----|-0-----x--0------x---|----------------x-|
A|-----x-------x-|-0-0-x-0-----x-----|-------x---------x---|-------x--------x-|
E|-----x---------|-----x-------------|---------------------|--8--8-x-8--------|


  (o)   (o) (o)   (o)   (o) (o)       (o)      (o)           (o)   (o)
  
e|-5-----------8-|-5-------------11b-|---10-10------10---8-|-(8)------------------|
B|-5-------------|-5-----------------|---10-10----13-------|-----------------4\3--|
G|-5-------------|-5-----------------|---10-10----10-------|------------0-2-------|
D|-3-3---3-----x-|-------------x-----|-0-----x--0------x---|----------------------|
A|-----x-------x-|-0-0-x-0-----x-----|-------x---------x---|-------x------x-------|
E|-----x---------|-----x-------------|---------------------|--8--8-x-8----x-------|

   (o)     (o)            (o)     (o)           (o)     (o)           (o)

e|----------------------|---------------------|----------------------|---------------8-|
B|-(3)-3-3----1h3---4\3-|-(3)-3-3-----1---4/3-|-(3)-3-3-----1h3----4-|-----------------|
G|-----2----------------|-----0-0-------------|-----2----------------|----2---/5~ 5----|
D|-----3----------------|-----2-2-------------|--0----x--0-------x---|------x--------x-|
A|-------x--------x-----|--0----x--0---x------|-------x----------x---|-3----x--------x-|
E|--1----x--1-----x-----|-------x------x------|----------------------|-----------------|


  (o)   (o) (o)   (o)   (o) (o)       (o)      (o)           (o)   (o)
  
e|-5-----------8-|-5-------------11b-|---10-10------10---8-|-(8)------------|
B|-5-------------|-5-----------------|---10-10----13-------|----------------|
G|-5-------------|-5-----------------|---10-10----10-------|----------------|
D|-3-3---3-----x-|-------------x-----|-0-----x--0------x---|----------------|
A|-----x-------x-|-0-0-x-0-----x-----|-------x---------x---|-------x------x-|
E|-----x---------|-----x-------------|---------------------|--8--8-x-8\1--x-|


[Outro] 

e|---0~---0~--0-|----0~----0~--0-|----2~---2~--2-|----0~---0~--0--|
B|---1~---1~--1-|----1~----1~--1-|----2~---2~--2-|----1~---1~--1--|
G|---0~---0~--0-|----0~----0~--0-|----1~---1~--1-|----0~---0~--0--|
D|------x-----x-|--------x-----x-|-0-----X-0~--x-|-------x-----x--|
A|------x-----x-|--0-----x-0~--x-|-------x-----x-|-3-----x-3~--x--|
E|-1------1~----|----------------|---------------|----------------|            
Submit corrections


        Sugar  lessons Hard to play? Try these video lessons and learn fast Sugar  lessons
        
↑ Back to top | Tablatures and chords for acoustic guitar and electric guitar, ukulele, drums are parodies/interpretations of the original songs. You may use it for private study, scholarship, research or language learning purposes only