» » »

Maroon 5 - In Your Pocket Tabs

Artists:  A B C D E F G H I J K L M N O P Q R S T U V W X Y Z # 

In Your Pocket Tabs

(ver. 1) Click to play this song!
Maroon 5
 Rating:
4/5 (4 votes)

 In Your Pocket  lessons Tabs too difficult? Try these video lessons and learn fast
 
                Tuning:

Chorus

e|-------9-----9-----9----12----12----12-----9-----9-----9----12----12-13-13--------|
B|---10-10-10-10-10-10-10-10-10-10-10-10-10-10-10-10-10-10-12-12-12-12-13-13--------|
G|-------------------------9-----9-----9-----------------------9-----9-10-10--------|
D|----------------------------------------------------------------------------------|
A|----------------------------------------------------------------------------------|
E|----------------------------------------------------------------------------------|

That's it

Chord progression with capo on second fret

e|---2---2---2---------------------------------------------------------------------|
B|---2---3---2---5-----------------------------------------------------------------|
G|---2---2---2---6-----------------------------------------------------------------|
D|---4---4---2---6-----------------------------------------------------------------|
A|---4---5---4---4-----------------------------------------------------------------|
E|---2---2---5---------------------------------------------------------------------|
            
Submit corrections


        In Your Pocket  lessons Hard to play? Try these video lessons and learn fast In Your Pocket  lessons
        
↑ Back to top | Tablatures and chords for acoustic guitar and electric guitar, ukulele, drums are parodies/interpretations of the original songs. You may use it for private study, scholarship, research or language learning purposes only