» » »

Maroon 5 - Harder To Breathe Tabs

Artists:  A B C D E F G H I J K L M N O P Q R S T U V W X Y Z # 

Harder To Breathe Tabs

(ver. 1) Click to play this song!
Maroon 5
 Rating:
4.3/5 (10 votes)

 Harder To Breathe lessons Tabs too difficult? Try these video lessons and learn fast
 
                [Solo]

e|---------------------------------------------------------------------------|
B|-----------------------------------------------------------------11--------|
G|-13-13-13-13-13-13-13-12-12-12-12-12-12-12-12-12-11-9----9-11----11--------
D|------------------------------------------------------11------11-----------|
A|---------------------------------------------------------------------------|
E|---------------------------------------------------------------------------|

e|---------------------------------------------------------------------------|
B|---------------------------------------------------------------------------|
G|-13-11-12-11-9----9-13-11b-11b-11b-11b-11b-11b-11b-9----9-13-12---9--------|
D|---------------11------------------------------------11--------11---11-----|
A|---------------------------------------------------------------------------|
E|---------------------------------------------------------------------------|

e|-------------------------------------13-13---------------------------------|
B|-------------------------------------------14-12-14-12-14--12--------------|
G|-------------9-11-12-11------9-11-13--------------------------11-11--------|
D|-13-14-13-11------------9-11-----------------------------------------------|
A|---------------------------------------------------------------------------|
E|---------------------------------------------------------------------------|

e|-------------------------------------------------------------------------9|
B|---------14-12---------12---------------------12-12-12-------------------9|
G|12---12--------13-11-11---11-11-9-11-9-11-9------------11-9-11-9-9-11-11--|
D|--11----------------------------------------11----------------------------|
A|--------------------------------------------------------------------------|
E|--------------------------------------------------------------------------|            
Submit corrections


        Harder To Breathe lessons Hard to play? Try these video lessons and learn fast Harder To Breathe lessons
        
↑ Back to top | Tablatures and chords for acoustic guitar and electric guitar, ukulele, drums are parodies/interpretations of the original songs. You may use it for private study, scholarship, research or language learning purposes only