Home » M » Marmalade »

Marmalade - Lovin Things Bass

Artists:  A B C D E F G H I J K L M N O P Q R S T U V W X Y Z # 

Lovin Things Bass

(ver. 1) Click to play this song!
Marmalade
Hailing from Glasgow this how it all started for Marmalade in 1968.
This their first single reached number 6 in the UK charts.
Straight forward song watch for key change at the end.


Intro:
G|----------------|-----------------------------------------------|
D|---DRUM START---|-5-5----5----4-4----4----3-3----3----2-2----2--|
A|----NO BASS-----|----5-7--5------5-7--5------3-5--3------3-5--3-|
E|----------------|-----------------------------------------------|

G|-----------------------------------------------------|
D|---0-0---1-1---2-2---0-0------------------------4----|
A|-------------------------3-3---2-2---0-0---5-7---5---|
E|-----------------------------------------------------|

Verse:
G|-------------------------------------------------------------|
D|-5-5----5----4-4----4----3-3----3----2-2----2----0000---1111-|
A|----5-7--5------5-7--5------3-5--3------3-5--3---------------|
E|-------------------------------------------------------------|

G|-------------------------------------------|
D|-2222---0000--------------------------4----|
A|-------------3333---2222---0000---5-7--5---|
E|-------------------------------------------|

Repeat Verse:

Middle 8:
G|---------------------------------------------------------------------|
D|-88888888-88888888-88888888-88888888-77777777-6666666-55555555---7---|
A|------------------------------------------------------------------7--|
E|-------------------------------------------------------------------5-|

Bridge:
G|-12-11---11-9------------12-11---11-9------------------------------------|
D|--------12----10-12------------12-----10-12------------------------------|
A|-------------------10-12--------------------12-10------------------------|
E|--------------------------------------------------8-8---7-7---5-5---5555-|

G|---------------------|
D|---------------------|
A|-5-5-5555---5-5-5555-|
E|---------------------|

Repeat Verse:

For Solo Play Middle 8:

Repeat Bridge:

Repeat Verse:

Into Key Change & Outro:
G|-----------------------------------------------|
D|-5-5----5----4-4----4----3-3----3----2-2----2--|
A|----5-7--5------5-7--5------3-5--3------3-5--3-|
E|-----------------------------------------------|

                                               CODA
G|-------------------------------------------||-----------------------|
D|-0-0---1-1---2-2---0-0---------------------||-6-6----6----5-5----5--|
A|-----------------------3-3---2-2---7-7-7-7-||----6-8--6------6-8--6-|
E|-------------------------------------------||-----------------------|
                                                                  To Coda
G|--------------------------------------------------------------------||
D|-4-4----4----3-3----3---1111-2222-3333-1111---------------------5---||
A|----4-6--4------4-6--4----------------------4444-3333-1111---6-8--6-||
E|--------------------------------------------------------------------||

Not 100% as the recorded version but near enough Have fun!
            
Submit corrections

↑ Back to top | Tablatures and chords for acoustic guitar and electric guitar, ukulele, drums are parodies/interpretations of the original songs. You may use it for private study, scholarship, research or language learning purposes only