Home » M » Markus Krunegard »

Markus Krunegard - Det Ar Ett Idogt Jobb Att Driva Ungdomen Ut Ur Sin Kropp Tabs

Artists:  A B C D E F G H I J K L M N O P Q R S T U V W X Y Z # 

Det Ar Ett Idogt Jobb Att Driva Ungdomen Ut Ur Sin Kropp Tabs

(ver. 1) Click to play this song!
Markus Krunegard
 Rating:
4.6/5 (20 votes)
                Verse 1 (0:00)

Guitar 1:

e|---------------------------------------------------------------|
B|-5#-4#-5#-4#---------------------------------------------------|
G|---------------------------------------------------------------|
D|---------------------------------------------------------------|
A|---------------------------------------------------------------|
E|---------------------------------------------------------------|

e|---------------------------------------------------------------|
B|---------------------------------------------------------------|
G|---------------------------------------------------------------|
D|-9#-11#-13#-9#-11#-13#-----------------------------------------|
A|---------------------------------------------------------------|
E|---------------------------------------------------------------|

-------------------------------------------------------------------------------------------------------------

Verse 2 & 3 (0:27)

Guitar 1:

e|---------------------------------------------------------------|
B|---------------------------------------------------------------|
G|---------------------------------------------------------------|
D|-9#-11#-13#-9#-11#-13#-----------------------------------------| x2
A|-----------------------14#-16#-#18-14#-16#-18#-----------------|
E|---------------------------------------------------------------|

e|---------------------------------------------------------------|
B|---------------------------------------------------------------|
G|---------------------------------------------------------------|
D|-9#-11#-13#-9#-11#-13#-9~--------------------------------------|
A|---------------------------------------------------------------|
E|---------------------------------------------------------------|


Guitar 2:

e|-----------------|-----------------|-----------------|-----------------|
B|-----------------|-----------------|-----------------|-----------------|
G|-9-9-9-9-9-9-9-9-|-----------------|-----------------|-----------------|
D|-9-9-9-9-9-9-9-9-|-7-7-7-7-7-7-7-7-|-9-9-9-9-9-9-9-9-|-9-9-9-9-9-9-9-9-| x10
A|-7-7-7-7-7-7-7-7-|-7-7-7-7-7-7-7-7-|-9-9-9-9-9-9-9-9-|-9-9-9-9-9-9-9-9-|
E|-----------------|-5-5-5-5-5-5-5-5-|-7-7-7-7-7-7-7-7-|-7-7-7-7-7-7-7-7-|

-------------------------------------------------------------------------------------------------------------

Verse 4 (1:27): Same as verse 1

-------------------------------------------------------------------------------------------------------------

Verse 5 & 6 (1:53): Same as verse 2 & 3

-------------------------------------------------------------------------------------------------------------

Bridge (2:41):

Guitar 1:

e|---------------------------------------------------------------|
B|---------------------------------------------------------------|
G|---------------------------------------------------------------|
D|-9#-11#-13#-9#-11#-13#-------------------------9~--------------|
A|-----------------------14#-16#-18#-14#-16#-18#-----------------|
E|---------------------------------------------------------------|

Guitar 2:

e|-----------------|-----------------|-----------------|-----------------|
B|-----------------|-----------------|-----------------|-----------------|
G|-9-9-9-9-9-9-9-9-|-9-9-9-9-9-9-9-9-|-----------------|-----------------|
D|-9-9-9-9-9-9-9-9-|-9-9-9-9-9-9-9-9-|-9-9-9-9-9-9-9-9-|-9-9-9-9-9-9-9-9-| x4
A|-7-7-7-7-7-7-7-7-|-7-7-7-7-7-7-7-7-|-9-9-9-9-9-9-9-9-|-9-9-9-9-9-9-9-9-|
E|-----------------|-----------------|-7-7-7-7-7-7-7-7-|-7-7-7-7-7-7-7-7-|

e|-----------------|
B|-----------------|
G|-9~--------------|
D|-9~--------------|
A|-7~--------------|
E|-----------------|            
Submit corrections

↑ Back to top | Tablatures and chords for acoustic guitar and electric guitar, ukulele, drums are parodies/interpretations of the original songs. You may use it for private study, scholarship, research or language learning purposes only