Home » M » Markus Krunegard »

Markus Krunegard - Den Som Dör Får Se Tabs

Artists:  A B C D E F G H I J K L M N O P Q R S T U V W X Y Z # 

Den Som Dör Får Se Tabs

(ver. 1) Click to play this song!
Markus Krunegard
 Rating:
4/5 (4 votes)
                Tuning: Standard

 D Em G D

Notes: Håll handen som ett C ackord med ringfingret på femte bandet genom hela låten. Tummen kommer upp 
       bakom halsen på G ackordet.

e|---------------------------------------------------------------------------|
B|-------3---------------3---------------3---------------3-------------------|
G|---0-------0---0---0-------0---0---0-------0---0---0-------0---0-----------|
D|---------------------------------------------------------------------------|
A|-5---5---5---5---5---5---5---5---------------------------------------------|
E|---------------------------------0---0---0---0---0---0---0---0-------------|

e|---------------------------------------------------------------------------|
B|-------3---------------3---------------3---------------3-------------------|
G|---0-------0---0---0-------0---0---0-------0---0---0-------0---0-----------|
D|---------------------------------------------------------------------------|
A|---------------------------------5---5---5---5---5---5---5---5-------------|
E|-3---3---3---3---3---3---3---3---------------------------------------------|
            
Submit corrections

↑ Back to top | Tablatures and chords for acoustic guitar and electric guitar, ukulele, drums are parodies/interpretations of the original songs. You may use it for private study, scholarship, research or language learning purposes only