» » »

Mark Tremonti - Providence Tabs

Artists:  A B C D E F G H I J K L M N O P Q R S T U V W X Y Z # 

Providence Tabs

(ver. 1) Click to play this song!
Mark Tremonti
 Rating:
3.8/5 (25 votes)

 Providence  lessons Tabs too difficult? Try these video lessons and learn fast
 
                Tuning: Open B5 (Open D5 down a step and a half) DADADD -> BF#BF#BB

B |---------------------------------------------------------------------------|
B |----3----------2h3-2-----------0---1---------0h1--0-----------0------------|
F#|--------0--------------0---------------0--------------0--------------------|
B |---------------------------------------------------------------------------|
F#|----3-------3--------------3-------1------1--------------1-----------------|
B |---------------------------------------------------------------------------|

B |-----------------------------------------------------12+-------------------|
B |----7-----------5h7----8--------5---5h7------------------12+---------------|
F#|--------0------------------0--------------0-------------------12+----------|
B |--------------------------------------0-----0------------------------------|
F#|-----------------------7---------------------------------------------------|
B |----3------3---------------------------------------------------------------|
            
Submit corrections


        Providence  lessons Hard to play? Try these video lessons and learn fast Providence  lessons
        
↑ Back to top | Tablatures and chords for acoustic guitar and electric guitar, ukulele, drums are parodies/interpretations of the original songs. You may use it for private study, scholarship, research or language learning purposes only