» » »

Mark Tremonti - Cauterize Tabs

Artists:  A B C D E F G H I J K L M N O P Q R S T U V W X Y Z # 

Cauterize Tabs

(ver. 1) Click to play this song!
Mark Tremonti
 Rating:
2.3/5 (22 votes)

 Cauterize  lessons Tabs too difficult? Try these video lessons and learn fast
 
                Tuning:Drop C#

Intro:
D#|-----------|  ----------------------------| -----------|  ------------------------------|
A#|-----------|  ----------------------------| -----------|  ------------------------------|
F#|-----------|  -------3--------------------| -----------|  -------3----------------------|
C#|-----------|x4-------3--1-----4-1-------1-| -----------|x4 ------3--1-----4-1-------1---|
G#|-----------|  -------1--1-----4-1-------1-| -----------|  -------1--1-----4-1-------1---|
C#|-0-0-0-0-0-|  -0-0-0----1-0-0-4-1-0-0-0-1-| -0-0-0-0-0-|  -0-0-0----1-0-0-4-1-0-0-0-1---|

D#|-----------|  ----------------------------| -----------|  ------------------------------|
A#|-----------|  ----------------------------| -----------|  ------------------------------|
F#|-----------|  -------3--------------------| -----------|  -------3----------------------|
C#|-----------|x4-------3--1-----4-1-------1-| -----------|x4 ------3--1-----4-1-------1---|
G#|-----------|  -------1--1-----4-1-------1-| -----------|  -------1--1-----4-1-------1---|
C#|-3-3-3-3-3-|  -0-0-0----1-0-0-4-1-0-0-0-1-| -3-3-3-3-3-|  -0-0-0----1-0-0-4-1-0-0-0-1---|
    * * * * *                                   * * * * *

Verse:
D#|-----------------------------------------------------------------------------------------|
A#|-----------------------------------------------------------------------------------------|
F#|-9---9--9--9--9--9--9--9---9--9--9--9--9--9--9---9--9--9--9--9--9--9---9--9--9--9--9--9--|
C#|-10--10-10-10-10-10-10-10--10-10-10-10-10-10-12--12-12-12-12-12-12-12--12-12-12-12-12-12-|
G#|-10--10-10-10-10-10-10-10--10-10-10-10-10-10-10--10-10-10-10-10-10-10--10-10-10-10-10-10-|
C#|-10--10-10-10-10-10-10-10--10-10-10-10-10-10-10--10-10-10-10-10-10-10--10-10-10-10-10-10-|

D#|-----------------------------------------------------------------------------------------|
A#|-----------------------------------------------------------------------------------------|
F#|-7--7-7-7-7-7-7-10-10-10-10-9-9-9-9-7-7-7---7--7--7--7--7--7--7---7--7--7--7--7--7-------|
C#|-8--8-8-8-8-8-8-8--8--8--8--8-8-8-8-8-8-10--10-10-10-10-10-10-10--10-10-10-10-10-10------|
G#|-8--8-8-8-8-8-8-8--8--8--8--8-8-8-8-8-8-8---8--8--8--8--8--8--8---8--8--8--8--8--8-------|
C#|-8--8-8-8-8-8-8-8--8--8--8--8-8-8-8-8-8-8---8--8--8--8--8--8--8---8--8--8--8--8--8-------|

D#|---------------------------------------------------------------------------|
A#|---------------------------------------------------------------------------|
F#|-10-9--9-9-9-9-9-9-9--9-9-9-9-9-9-7--9-9-9-9\-14-14-14-14-14-14------------|
C#|-8--7--7-7-7-7-7-7-7--7-7-7-7-7-7-x--x-x-x-x\-x--x--x--x--x--x-------------|
G#|-8--7--7-7-7-7-7-7-7--7-7-7-7-7-7-5--7-7-7-7\-12-12-12-12-12-12------------|
C#|-0--0--0-0-0-0-0-0-0--0-0-0-0-0-0-0--0-0-0-0--0--0--0--0--0--0-------------|

D#|---------------------------------------------------------------------------|
A#|---------------------------------------------------------------------------|
F#|-10-9--9-9-9-9-9-9-9--9-9-9-9-9-9-9--10-10-10-10\-17-17-17-17-17-17--------|
C#|-8--7--7-7-7-7-7-7-7--7-7-7-7-7-7-x--x--x--x--x-\-x--x--x--x--x--x---------|
G#|-8--7--7-7-7-7-7-7-7--7-7-7-7-7-7-7--8--8--8--8-\-15-15-15-15-15-15--------|
C#|-0--0--0-0-0-0-0-0-0--0-0-0-0-0-0-0--0--0--0--0---0--0--0--0--0--0---------|

x2

Chorus:
D#|--------------------------------------------------------------------------|
A#|------10--10-10-10--10--10--10-11--11--11-11-11-11------------------------|
F#|-10-9-9---9--9--9---9---9---9--10--10--10-10-10-10------------------------|
C#|-x--x-7---7--7--7---7---7---7--8---8---8--8--8--8-------------------------|
G#|-8--7-7---7--7--7---7---7---7--8---8---8--8--8--8-------------------------|
C#|------7---7--7--7---7---7---7--8---8---8--8--8--8-------------------------|

D#|---------------------------------------------------------------------------|
A#|-6--6-6-6-6--6-6-6-6-6-6-6-------------------------------------------------|
F#|-5--5-5-5-5--5-5-5-5-5-5-5-------------------------------------------------|
C#|-3--3-3-3-3--3-3-3-3-3-3-3-5--5-5-5-5--5--5-5-5-5-5------------------------|
G#|-3--3-3-3-3--3-3-3-3-3-3-3-3--3-3-3-3--3--3-3-3-3-3------------------------|
C#|-3--3-3-3-3--3-3-3-3-3-3-3-2--2-2-2-2--2--2-2-2-2-2------------------------|

x2

D#|-----------|  ----------------------------| -----------|  ------------------------------|
A#|-----------|  ----------------------------| -----------|  ------------------------------|
F#|-----------|  -------3--------------------| -----------|  -------3----------------------|
C#|-----------|x4-------3--1-----4-1-------1-| -----------|x4 ------3--1-----4-1-------1---|
G#|-----------|  -------1--1-----4-1-------1-| -----------|  -------1--1-----4-1-------1---|
C#|-0-0-0-0-0-|  -0-0-0----1-0-0-4-1-0-0-0-1-| -3-3-3-3-3-|  -0-0-0----1-0-0-4-1-0-0-0-1---|
                                                * * * * *
Verse:
D#|-----------------------------------------------------------------------------------------|
A#|-----------------------------------------------------------------------------------------|
F#|-9---9--9--9--9--9--9--9---9--9--9--9--9--9--9---9--9--9--9--9--9--9---9--9--9--9--9--9--|
C#|-10--10-10-10-10-10-10-10--10-10-10-10-10-10-12--12-12-12-12-12-12-12--12-12-12-12-12-12-|
G#|-10--10-10-10-10-10-10-10--10-10-10-10-10-10-10--10-10-10-10-10-10-10--10-10-10-10-10-10-|
C#|-10--10-10-10-10-10-10-10--10-10-10-10-10-10-10--10-10-10-10-10-10-10--10-10-10-10-10-10-|

D#|-----------------------------------------------------------------------------------------|
A#|-----------------------------------------------------------------------------------------|
F#|-7--7-7-7-7-7-7-10-10-10-10-9-9-9-9-7-7-7---7--7--7--7--7--7--7---7--7--7--7--7--7-------|
C#|-8--8-8-8-8-8-8-8--8--8--8--8-8-8-8-8-8-10--10-10-10-10-10-10-10--10-10-10-10-10-10------|
G#|-8--8-8-8-8-8-8-8--8--8--8--8-8-8-8-8-8-8---8--8--8--8--8--8--8---8--8--8--8--8--8-------|
C#|-8--8-8-8-8-8-8-8--8--8--8--8-8-8-8-8-8-8---8--8--8--8--8--8--8---8--8--8--8--8--8-------|

D#|---------------------------------------------------------------------------|
A#|---------------------------------------------------------------------------|
F#|-10-9--9-9-9-9-9-9-9--9-9-9-9-9-9-7--9-9-9-9\-14-14-14-14-14-14------------|
C#|-8--7--7-7-7-7-7-7-7--7-7-7-7-7-7-x--x-x-x-x\-x--x--x--x--x--x-------------|
G#|-8--7--7-7-7-7-7-7-7--7-7-7-7-7-7-5--7-7-7-7\-12-12-12-12-12-12------------|
C#|-0--0--0-0-0-0-0-0-0--0-0-0-0-0-0-0--0-0-0-0--0--0--0--0--0--0-------------|

D#|---------------------------------------------------------------------------|
A#|---------------------------------------------------------------------------|
F#|-10-9--9-9-9-9-9-9-9--9-9-9-9-9-9-9--10-10-10-10\-17-17-17-17-17-17--------|
C#|-8--7--7-7-7-7-7-7-7--7-7-7-7-7-7-x--x--x--x--x-\-x--x--x--x--x--x---------|
G#|-8--7--7-7-7-7-7-7-7--7-7-7-7-7-7-7--8--8--8--8-\-15-15-15-15-15-15--------|
C#|-0--0--0-0-0-0-0-0-0--0-0-0-0-0-0-0--0--0--0--0---0--0--0--0--0--0---------|

Chorus:
D#|--------------------------------------------------------------------------|
A#|------10--10-10-10--10--10--10-11--11--11-11-11-11------------------------|
F#|-10-9-9---9--9--9---9---9---9--10--10--10-10-10-10------------------------|
C#|-x--x-7---7--7--7---7---7---7--8---8---8--8--8--8-------------------------|
G#|-8--7-7---7--7--7---7---7---7--8---8---8--8--8--8-------------------------|
C#|------7---7--7--7---7---7---7--8---8---8--8--8--8-------------------------|

D#|---------------------------------------------------------------------------|
A#|-6--6-6-6-6--6-6-6-6-6-6-6-------------------------------------------------|
F#|-5--5-5-5-5--5-5-5-5-5-5-5-------------------------------------------------|
C#|-3--3-3-3-3--3-3-3-3-3-3-3-5--5-5-5-5--5--5-5-5-5-5------------------------|
G#|-3--3-3-3-3--3-3-3-3-3-3-3-3--3-3-3-3--3--3-3-3-3-3------------------------|
C#|-3--3-3-3-3--3-3-3-3-3-3-3-2--2-2-2-2--2--2-2-2-2-2------------------------|

D#|--------------------------------------------------------------------------|
A#|------10--10-10-10--10--10--10-11--11--11-11-11-11------------------------|
F#|-10-9-9---9--9--9---9---9---9--10--10--10-10-10-10------------------------|
C#|-x--x-7---7--7--7---7---7---7--8---8---8--8--8--8-------------------------|
G#|-8--7-7---7--7--7---7---7---7--8---8---8--8--8--8-------------------------|
C#|------7---7--7--7---7---7---7--8---8---8--8--8--8-------------------------|

D#|---------------------------------------------------------------------------|
A#|-6--6-6-6-6--6-6-6-6-6-6-6-------------------------------------------------|
F#|-5--5-5-5-5--5-5-5-5-5-5-5-------------------------------------------------|
C#|-3--3-3-3-3--3-3-3-3-3-3-3-5--5-5--5-5-5-5--5-5-5-5--5-5--5-5-5-5--5-5-5---|
G#|-3--3-3-3-3--3-3-3-3-3-3-3-3--3-3--3-3-3-3--3-3-3-3--3-3--3-3-3-3--3-3-3---|
C#|-3--3-3-3-3--3-3-3-3-3-3-3-2--2-2--2-2-2-2--2-2-2-2--2-2--2-2-2-2--2-2-2---|


Bridge:
D#|-------------------------------------------------------------------------- ----------------------|
A#|--------------------------------------------3-3---3-3--3----3-3---3-3--3-- ----------------------|
F#|--------------------------------------------2-2---2-2--2----2-2---2-2--2-- ----------------------|
C#|---------------------------------5----------0-0---0-0--0----0-0---0-0--0-- ------------------/0--|x2
G#|---5---7---8---7---5-----5---7-------7---8--0-0---0-0--0----0-0---0-0--0-- a slide from down /0--|
C#|-0---0---0---0---0-----0---0---0---0---0----0-0---0-0--0----0-0---0-0--0-- ------------------/0--|

D#|---------------------------------------------------------------------------------------|
A#|-------------------------------------------3--3-3--3-3-3-3--3-3------------------------|
F#|-5--5-5--5-5-5-5--5-5-3--3-3--3-3-3-3--3-3-2--2-2--2-2-2-2--2-2-3--3-3--3-3-3-3--3-3---|
C#|-5--5-5--5-5-5-5--5-5-3--3-3--3-3-3-3--3-3-0--0-0--0-0-0-0--0-0-3--3-3--3-3-3-3--3-3---|x2
G#|-3--3-3--3-3-3-3--3-3-1--1-1--1-1-1-1--1-1-0--0-0--0-0-0-0--0-0-1--1-1--1-1-1-1--1-1---|
C#|-------------------------------------------0--0-0--0-0-0-0--0-0------------------------|

D#|-------------------------------------------------------------------|
A#|-------------------------------------------------------------------|
F#|-5--5-5--5-5-5-5--5-5-3--3-3--3-3-3-3--3-3--3-3--3-3--3-3-3-3--3---|
C#|-5--5-5--5-5-5-5--5-5-3--3-3--3-3-3-3--3-3--3-3--3-3--3-3-3-3--3---|
G#|-3--3-3--3-3-3-3--3-3-1--1-1--1-1-1-1--1-1--1-1--1-1--1-1-1-1--1---|
C#|-------------------------------------------------------------------|

D#|-----------|  ----------------------------| -----------|  ------------------------------|
A#|-----------|  ----------------------------| -----------|  ------------------------------|
F#|-----------|  -------3--------------------| -----------|  -------3----------------------|
C#|-----------|x4-------3--1-----4-1-------1-| -----------|x4 ------3--1-----4-1-------1---|
G#|-----------|  -------1--1-----4-1-------1-| -----------|  -------1--1-----4-1-------1---|
C#|-0-0-0-0-0-|  -0-0-0----1-0-0-4-1-0-0-0-1-| -3-3-3-3-3-|  -0-0-0----1-0-0-4-1-0-0-0-1---|
                                                * * * * *
Chorus:
D#|--------------------------------------------------------------------------|
A#|------10--10-10-10--10--10--10-11--11--11-11-11-11------------------------|
F#|-10-9-9---9--9--9---9---9---9--10--10--10-10-10-10------------------------|
C#|-x--x-7---7--7--7---7---7---7--8---8---8--8--8--8-------------------------|
G#|-8--7-7---7--7--7---7---7---7--8---8---8--8--8--8-------------------------|
C#|------7---7--7--7---7---7---7--8---8---8--8--8--8-------------------------|

D#|---------------------------------------------------------------------------|
A#|-6--6-6-6-6--6-6-6-6-6-6-6-------------------------------------------------|
F#|-5--5-5-5-5--5-5-5-5-5-5-5-------------------------------------------------|
C#|-3--3-3-3-3--3-3-3-3-3-3-3-5--5-5-5-5--5--5-5-5-5-5------------------------|
G#|-3--3-3-3-3--3-3-3-3-3-3-3-3--3-3-3-3--3--3-3-3-3-3------------------------|
C#|-3--3-3-3-3--3-3-3-3-3-3-3-2--2-2-2-2--2--2-2-2-2-2------------------------|

D#|--------------------------------------------------------------------------|
A#|------10--10-10-10--10--10--10-11--11--11-11-11-11------------------------|
F#|-10-9-9---9--9--9---9---9---9--10--10--10-10-10-10------------------------|
C#|-x--x-7---7--7--7---7---7---7--8---8---8--8--8--8-------------------------|
G#|-8--7-7---7--7--7---7---7---7--8---8---8--8--8--8-------------------------|
C#|------7---7--7--7---7---7---7--8---8---8--8--8--8-------------------------|

D#|---------------------------------------------------------------------------|
A#|-6--6-6-6-6--6-6-6-6-6-6-6-------------------------------------------------|
F#|-5--5-5-5-5--5-5-5-5-5-5-5-------------------------------------------------|
C#|-3--3-3-3-3--3-3-3-3-3-3-3-5--5-5-5-5--5--5-5-5-5-5------------------------|
G#|-3--3-3-3-3--3-3-3-3-3-3-3-3--3-3-3-3--3--3-3-3-3-3------------------------|
C#|-3--3-3-3-3--3-3-3-3-3-3-3-2--2-2-2-2--2--2-2-2-2-2------------------------|

D#|--------------------------------------------------------------------------|
A#|------10--10-10-10--10--10--10-11--11--11-11-11-11------------------------|
F#|-10-9-9---9--9--9---9---9---9--10--10--10-10-10-10------------------------|
C#|-x--x-7---7--7--7---7---7---7--8---8---8--8--8--8-------------------------|
G#|-8--7-7---7--7--7---7---7---7--8---8---8--8--8--8-------------------------|
C#|------7---7--7--7---7---7---7--8---8---8--8--8--8-------------------------|

D#|---------------------------------------------------------------------------|
A#|-6--6-6-6-6--6-6-6-6-6-6-6-------------------------------------------------|
F#|-5--5-5-5-5--5-5-5-5-5-5-5-------------------------------------------------|
C#|-3--3-3-3-3--3-3-3-3-3-3-3-----------5--5-----------5--5-------------------|
G#|-3--3-3-3-3--3-3-3-3-3-3-3-----------3--3-----------3--3-------------------|
C#|-3--3-3-3-3--3-3-3-3-3-3-3-0-0-0-0-0-2--2-0-0-0-0-0-2--2-------------------|

D#|--------------------------------------------------------------------------|
A#|------10--10-10-10--10--10--10-11--11--11-11-11-11------------------------|
F#|-10-9-9---9--9--9---9---9---9--10--10--10-10-10-10------------------------|
C#|-x--x-7---7--7--7---7---7---7--8---8---8--8--8--8-------------------------|
G#|-8--7-7---7--7--7---7---7---7--8---8---8--8--8--8-------------------------|
C#|------7---7--7--7---7---7---7--8---8---8--8--8--8-------------------------|

D#|---------------------------------------------------------------------------|
A#|-6--6-6-6-6--6-6-6-6-6-6-6-------------------------------------------------|
F#|-5--5-5-5-5--5-5-5-5-5-5-5--------------------------7----------------------|
C#|-3--3-3-3-3--3-3-3-3-3-3-3-5--5-5-5-5--5--5-5-5-5-5-7----------------------|
G#|-3--3-3-3-3--3-3-3-3-3-3-3-3--3-3-3-3--3--3-3-3-3-3-5----------------------|
C#|-3--3-3-3-3--3-3-3-3-3-3-3-2--2-2-2-2--2--2-2-2-2-2------------------------|

Outro:
D#|-------------------------------------------|
A#|-5/6-5-------------------------------------|
F#|-------5---5-7--7---0-2--2--0--4/5--5/7-5--|
C#|-------------------------------------------|
G#|-------------------------------------------|
C#|-0---0-7---7-8--8---3-3--3--3--2-----------|

D#|-------------------------------------------|
A#|-5/6-5----------------------------------5--|
F#|-------5---5-7--7---0-2--2--0--4/5--5/7----|
C#|-------------------------------------------|
G#|-------------------------------------------|
C#|-0---0-7---7-8--8---3-3--3--3--2-----------|

D#|-------------------------------------------|
A#|-5/6-5-------------------------------------|
F#|-------5---5-7--7---5-5--5--5--0-----------|
C#|-------------------------------------------|
G#|-------------------------------------------|
C#|-0---0-7---7-8--8---3-3--3--3--2-----------|

D#|-------------------------------------------|
A#|-5/6-5---5---------------------------------|
F#|-------5---5-7--7---5-5--5--5--0-----------|
C#|-------------------------------------------|
G#|-------------------------------------------|
C#|-0---0-7---7-8--8---3-3--3--3--2-----------|

D#|------------|
A#|-6\5--------|
F#|-----5------|
C#|-------7----|
G#|------------|
C#|-0----------|            
Submit corrections


        Cauterize  lessons Hard to play? Try these video lessons and learn fast Cauterize  lessons
        
↑ Back to top | Tablatures and chords for acoustic guitar and electric guitar, ukulele, drums are parodies/interpretations of the original songs. You may use it for private study, scholarship, research or language learning purposes only